  0
SECTION
  2
HEADER
  9
$ACADVER
  1
AC1021
  9
$ACADMAINTVER
 70
    25
  9
$DWGCODEPAGE
  3
ANSI_1252
  9
$INSBASE
 10
0.0
 20
0.0
 30
0.0
  9
$EXTMIN
 10
0.0
 20
0.0
 30
0.0
  9
$EXTMAX
 10
11.6929133858
 20
8.2677165354
 30
0.0
  9
$LIMMIN
 10
0.0
 20
0.0
  9
$LIMMAX
 10
11.6929133858
 20
8.2677165354
  9
$ORTHOMODE
 70
     0
  9
$REGENMODE
 70
     1
  9
$FILLMODE
 70
     1
  9
$QTEXTMODE
 70
     0
  9
$MIRRTEXT
 70
     1
  9
$LTSCALE
 40
1.0
  9
$ATTMODE
 70
     1
  9
$TEXTSIZE
 40
0.1377952756
  9
$TRACEWID
 40
0.05
  9
$TEXTSTYLE
  7
Standard
  9
$CLAYER
  8
0
  9
$CELTYPE
  6
ByLayer
  9
$CECOLOR
 62
   256
  9
$CELTSCALE
 40
1.0
  9
$DISPSILH
 70
     0
  9
$DIMSCALE
 40
1.0
  9
$DIMASZ
 40
0.13
  9
$DIMEXO
 40
0.0393700787
  9
$DIMDLI
 40
0.38
  9
$DIMRND
 40
0.0
  9
$DIMDLE
 40
0.0
  9
$DIMEXE
 40
0.0393700787
  9
$DIMTP
 40
0.0
  9
$DIMTM
 40
0.0
  9
$DIMTXT
 40
0.1377952756
  9
$DIMCEN
 40
0.09
  9
$DIMTSZ
 40
0.0
  9
$DIMTOL
 70
     0
  9
$DIMLIM
 70
     0
  9
$DIMTIH
 70
     1
  9
$DIMTOH
 70
     1
  9
$DIMSE1
 70
     0
  9
$DIMSE2
 70
     0
  9
$DIMTAD
 70
     1
  9
$DIMZIN
 70
     0
  9
$DIMBLK
  1

  9
$DIMASO
 70
     1
  9
$DIMSHO
 70
     1
  9
$DIMPOST
  1

  9
$DIMAPOST
  1

  9
$DIMALT
 70
     0
  9
$DIMALTD
 70
     2
  9
$DIMALTF
 40
25.4
  9
$DIMLFAC
 40
20.0
  9
$DIMTOFL
 70
     0
  9
$DIMTVP
 40
0.0
  9
$DIMTIX
 70
     0
  9
$DIMSOXD
 70
     0
  9
$DIMSAH
 70
     0
  9
$DIMBLK1
  1

  9
$DIMBLK2
  1

  9
$DIMSTYLE
  2
Standard
  9
$DIMCLRD
 70
     0
  9
$DIMCLRE
 70
     0
  9
$DIMCLRT
 70
     0
  9
$DIMTFAC
 40
1.0
  9
$DIMGAP
 40
0.06
  9
$DIMJUST
 70
     0
  9
$DIMSD1
 70
     0
  9
$DIMSD2
 70
     0
  9
$DIMTOLJ
 70
     1
  9
$DIMTZIN
 70
     0
  9
$DIMALTZ
 70
     0
  9
$DIMALTTZ
 70
     0
  9
$DIMUPT
 70
     0
  9
$DIMDEC
 70
     2
  9
$DIMTDEC
 70
     2
  9
$DIMALTU
 70
     2
  9
$DIMALTTD
 70
     2
  9
$DIMTXSTY
  7
Standard
  9
$DIMAUNIT
 70
     0
  9
$DIMADEC
 70
     2
  9
$DIMALTRND
 40
0.0
  9
$DIMAZIN
 70
     0
  9
$DIMDSEP
 70
    46
  9
$DIMATFIT
 70
     3
  9
$DIMFRAC
 70
     0
  9
$DIMLDRBLK
  1

  9
$DIMLUNIT
 70
     2
  9
$DIMLWD
 70
    -2
  9
$DIMLWE
 70
    -2
  9
$DIMTMOVE
 70
     0
  9
$DIMFXL
 40
1.0
  9
$DIMFXLON
 70
     0
  9
$DIMJOGANG
 40
0.7853981634
  9
$DIMTFILL
 70
     0
  9
$DIMTFILLCLR
 70
     0
  9
$DIMARCSYM
 70
     0
  9
$DIMLTYPE
  6

  9
$DIMLTEX1
  6

  9
$DIMLTEX2
  6

  9
$LUNITS
 70
     2
  9
$LUPREC
 70
     2
  9
$SKETCHINC
 40
0.1
  9
$FILLETRAD
 40
0.5
  9
$AUNITS
 70
     0
  9
$AUPREC
 70
     2
  9
$MENU
  1
.
  9
$ELEVATION
 40
0.0
  9
$PELEVATION
 40
0.0
  9
$THICKNESS
 40
0.0
  9
$LIMCHECK
 70
     0
  9
$CHAMFERA
 40
0.0
  9
$CHAMFERB
 40
0.0
  9
$CHAMFERC
 40
0.0
  9
$CHAMFERD
 40
0.0
  9
$SKPOLY
 70
     0
  9
$TDCREATE
 40
2457318.567739352
  9
$TDUCREATE
 40
2457318.130239352
  9
$TDUPDATE
 40
2457318.567741076
  9
$TDUUPDATE
 40
2457318.130241076
  9
$TDINDWG
 40
0.0000000116
  9
$TDUSRTIMER
 40
0.0000000116
  9
$USRTIMER
 70
     1
  9
$ANGBASE
 50
0.0
  9
$ANGDIR
 70
     0
  9
$PDMODE
 70
     0
  9
$PDSIZE
 40
-1.0
  9
$PLINEWID
 40
0.0
  9
$SPLFRAME
 70
     0
  9
$SPLINETYPE
 70
     6
  9
$SPLINESEGS
 70
     8
  9
$HANDSEED
  5
14E
  9
$SURFTAB1
 70
     6
  9
$SURFTAB2
 70
     6
  9
$SURFTYPE
 70
     6
  9
$SURFU
 70
     6
  9
$SURFV
 70
     6
  9
$UCSBASE
  2

  9
$UCSNAME
  2

  9
$UCSORG
 10
0.0
 20
0.0
 30
0.0
  9
$UCSXDIR
 10
1.0
 20
0.0
 30
0.0
  9
$UCSYDIR
 10
0.0
 20
1.0
 30
0.0
  9
$UCSORTHOREF
  2

  9
$UCSORTHOVIEW
 70
     0
  9
$UCSORGTOP
 10
0.0
 20
0.0
 30
0.0
  9
$UCSORGBOTTOM
 10
0.0
 20
0.0
 30
0.0
  9
$UCSORGLEFT
 10
0.0
 20
0.0
 30
0.0
  9
$UCSORGRIGHT
 10
0.0
 20
0.0
 30
0.0
  9
$UCSORGFRONT
 10
0.0
 20
0.0
 30
0.0
  9
$UCSORGBACK
 10
0.0
 20
0.0
 30
0.0
  9
$PUCSBASE
  2

  9
$PUCSNAME
  2

  9
$PUCSORG
 10
0.0
 20
0.0
 30
0.0
  9
$PUCSXDIR
 10
1.0
 20
0.0
 30
0.0
  9
$PUCSYDIR
 10
0.0
 20
1.0
 30
0.0
  9
$PUCSORTHOREF
  2

  9
$PUCSORTHOVIEW
 70
     0
  9
$PUCSORGTOP
 10
0.0
 20
0.0
 30
0.0
  9
$PUCSORGBOTTOM
 10
0.0
 20
0.0
 30
0.0
  9
$PUCSORGLEFT
 10
0.0
 20
0.0
 30
0.0
  9
$PUCSORGRIGHT
 10
0.0
 20
0.0
 30
0.0
  9
$PUCSORGFRONT
 10
0.0
 20
0.0
 30
0.0
  9
$PUCSORGBACK
 10
0.0
 20
0.0
 30
0.0
  9
$USERI1
 70
     0
  9
$USERI2
 70
     0
  9
$USERI3
 70
     0
  9
$USERI4
 70
     0
  9
$USERI5
 70
     0
  9
$USERR1
 40
0.0
  9
$USERR2
 40
0.0
  9
$USERR3
 40
0.0
  9
$USERR4
 40
0.0
  9
$USERR5
 40
0.0
  9
$WORLDVIEW
 70
     1
  9
$SHADEDGE
 70
     3
  9
$SHADEDIF
 70
    70
  9
$TILEMODE
 70
     1
  9
$MAXACTVP
 70
    64
  9
$PINSBASE
 10
0.0
 20
0.0
 30
0.0
  9
$PLIMCHECK
 70
     0
  9
$PEXTMIN
 10
1.0000000000E+20
 20
1.0000000000E+20
 30
1.0000000000E+20
  9
$PEXTMAX
 10
-1.0000000000E+20
 20
-1.0000000000E+20
 30
-1.0000000000E+20
  9
$PLIMMIN
 10
0.0
 20
0.0
  9
$PLIMMAX
 10
12.0
 20
9.0
  9
$UNITMODE
 70
     0
  9
$VISRETAIN
 70
     1
  9
$PLINEGEN
 70
     0
  9
$PSLTSCALE
 70
     1
  9
$TREEDEPTH
 70
  3020
  9
$CMLSTYLE
  2
Standard
  9
$CMLJUST
 70
     0
  9
$CMLSCALE
 40
1.0
  9
$PROXYGRAPHICS
 70
     1
  9
$MEASUREMENT
 70
     0
  9
$CELWEIGHT
370
    -1
  9
$ENDCAPS
280
     0
  9
$JOINSTYLE
280
     0
  9
$LWDISPLAY
290
     1
  9
$INSUNITS
 70
     1
  9
$HYPERLINKBASE
  1

  9
$STYLESHEET
  1

  9
$XEDIT
290
     1
  9
$CEPSNTYPE
380
     0
  9
$PSTYLEMODE
290
     1
  9
$FINGERPRINTGUID
  2
{965C42B6-93CF-43FD-8843-9437A4399033}
  9
$VERSIONGUID
  2
{FAEB1C32-E019-11D5-929B-00C0DF256EC4}
  9
$EXTNAMES
290
     1
  9
$PSVPSCALE
 40
0.0
  9
$OLESTARTUP
290
     0
  9
$SORTENTS
280
   127
  9
$INDEXCTL
280
     0
  9
$HIDETEXT
280
     1
  9
$XCLIPFRAME
290
     0
  9
$HALOGAP
280
     0
  9
$OBSCOLOR
 70
   257
  9
$OBSLTYPE
280
     0
  9
$INTERSECTIONDISPLAY
280
     0
  9
$INTERSECTIONCOLOR
 70
   257
  9
$DIMASSOC
280
     2
  9
$PROJECTNAME
  1

  9
$CAMERADISPLAY
290
     0
  9
$LENSLENGTH
 40
50.0
  9
$CAMERAHEIGHT
 40
0.0
  9
$STEPSPERSEC
 40
2.0
  9
$STEPSIZE
 40
6.0
  9
$3DDWFPREC
 40
2.0
  9
$PSOLWIDTH
 40
0.25
  9
$PSOLHEIGHT
 40
4.0
  9
$LOFTANG1
 40
1.5707963268
  9
$LOFTANG2
 40
1.5707963268
  9
$LOFTMAG1
 40
0.0
  9
$LOFTMAG2
 40
0.0
  9
$LOFTPARAM
 70
     7
  9
$LOFTNORMALS
280
     1
  9
$LATITUDE
 40
37.795
  9
$LONGITUDE
 40
-122.394
  9
$NORTHDIRECTION
 40
0.0
  9
$TIMEZONE
 70
 -8000
  9
$LIGHTGLYPHDISPLAY
280
     1
  9
$TILEMODELIGHTSYNCH
280
     1
  9
$CMATERIAL
347
44
  9
$SOLIDHIST
280
     1
  9
$SHOWHIST
280
     1
  9
$DWFFRAME
280
     2
  9
$DGNFRAME
280
     2
  9
$REALWORLDSCALE
290
     1
  9
$INTERFERECOLOR
 62
   256
  9
$CSHADOW
280
     0
  9
$SHADOWPLANELOCATION
 40
0.0
  0
ENDSEC
  0
SECTION
  2
CLASSES
  0
CLASS
  1
ACDBDICTIONARYWDFLT
  2
AcDbDictionaryWithDefault
  3
ObjectDBX Classes
 90
        0
 91
        4
280
     0
281
     0
  0
CLASS
  1
VISUALSTYLE
  2
AcDbVisualStyle
  3
ObjectDBX Classes
 90
     4095
 91
        4
280
     0
281
     0
  0
CLASS
  1
MATERIAL
  2
AcDbMaterial
  3
ObjectDBX Classes
 90
     1153
 91
        4
280
     0
281
     0
  0
CLASS
  1
SCALE
  2
AcDbScale
  3
ObjectDBX Classes
 90
     1153
 91
        4
280
     0
281
     0
  0
CLASS
  1
SUN
  2
AcDbSun
  3
SCENEOE
 90
     1153
 91
        4
280
     0
281
     0
  0
CLASS
  1
DICTIONARYVAR
  2
AcDbDictionaryVar
  3
ObjectDBX Classes
 90
        0
 91
        4
280
     0
281
     0
  0
ENDSEC
  0
SECTION
  2
TABLES
  0
TABLE
  2
VPORT
  5
8
330
0
100
AcDbSymbolTable
 70
     1
  0
VPORT
  5
29
330
8
100
AcDbSymbolTableRecord
100
AcDbViewportTableRecord
  2
*Active
 70
     0
 10
0.0
 20
0.0
 11
1.0
 21
1.0
 12
5.8464566929
 22
4.1338582677
 13
0.0
 23
0.0
 14
0.5
 24
0.5
 15
0.5
 25
0.5
 16
0.0
 26
0.0
 36
1.0
 17
0.0
 27
0.0
 37
0.0
 40
8.2677165354
 41
1.4142857143
 42
50.0
 43
0.0
 44
0.0
 50
0.0
 51
0.0
 71
     0
 72
  2000
 73
     1
 74
     3
 75
     0
 76
     0
 77
     0
 78
     0
281
     0
 65
     1
110
0.0
120
0.0
130
0.0
111
1.0
121
0.0
131
0.0
112
0.0
122
1.0
132
0.0
 79
     0
146
0.0
 60
     3
 61
     5
292
     1
282
     1
141
0.0
142
0.0
 63
   250
361
69
  0
ENDTAB
  0
TABLE
  2
LTYPE
  5
5
330
0
100
AcDbSymbolTable
 70
     6
  0
LTYPE
  5
14
330
5
100
AcDbSymbolTableRecord
100
AcDbLinetypeTableRecord
  2
ByBlock
 70
     0
  3

 72
    65
 73
     0
 40
0.0
  0
LTYPE
  5
15
330
5
100
AcDbSymbolTableRecord
100
AcDbLinetypeTableRecord
  2
ByLayer
 70
     0
  3

 72
    65
 73
     0
 40
0.0
  0
LTYPE
  5
16
330
5
100
AcDbSymbolTableRecord
100
AcDbLinetypeTableRecord
  2
Continuous
 70
     0
  3
Solid line
 72
    65
 73
     0
 40
0.0
  0
LTYPE
  5
6A
330
5
100
AcDbSymbolTableRecord
100
AcDbLinetypeTableRecord
  2
HIDDEN
 70
     0
  3
Hidden __ __ __ __ __ __ __ __ __ __ __ __ __ __
 72
    65
 73
     2
 40
0.075
 49
0.05
 74
     0
 49
-0.025
 74
     0
  0
LTYPE
  5
6B
330
5
100
AcDbSymbolTableRecord
100
AcDbLinetypeTableRecord
  2
PHANTOM
 70
     0
  3
Phantom ______  __  __  ______  __  __  ______
 72
    65
 73
     6
 40
0.5
 49
0.25
 74
     0
 49
-0.05
 74
     0
 49
0.05
 74
     0
 49
-0.05
 74
     0
 49
0.05
 74
     0
 49
-0.05
 74
     0
  0
LTYPE
  5
6C
330
5
100
AcDbSymbolTableRecord
100
AcDbLinetypeTableRecord
  2
CENTER
 70
     0
  3
Center ____ _ ____ _ ____ _ ____ _ ____ _ ____
 72
    65
 73
     4
 40
0.4
 49
0.25
 74
     0
 49
-0.05
 74
     0
 49
0.05
 74
     0
 49
-0.05
 74
     0
  0
LTYPE
  5
6D
330
5
100
AcDbSymbolTableRecord
100
AcDbLinetypeTableRecord
  2
CENTERX2
 70
     0
  3
Center (2x) ________  __  ________  __  _____
 72
    65
 73
     4
 40
0.8
 49
0.5
 74
     0
 49
-0.1
 74
     0
 49
0.1
 74
     0
 49
-0.1
 74
     0
  0
LTYPE
  5
6E
330
5
100
AcDbSymbolTableRecord
100
AcDbLinetypeTableRecord
  2
DOT2
 70
     0
  3
Dot (.5x) ........................................
 72
    65
 73
     2
 40
0.025
 49
0.0
 74
     0
 49
-0.025
 74
     0
  0
ENDTAB
  0
TABLE
  2
LAYER
  5
2
330
0
100
AcDbSymbolTable
 70
     2
  0
LAYER
  5
10
330
2
100
AcDbSymbolTableRecord
100
AcDbLayerTableRecord
  2
0
 70
     0
 62
     7
  6
Continuous
370
    -3
390
F
347
46
  0
LAYER
  5
6F
330
2
100
AcDbSymbolTableRecord
100
AcDbLayerTableRecord
  2
FORMAT
 70
     0
 62
     7
  6
Continuous
370
    -3
390
F
347
46
  0
ENDTAB
  0
TABLE
  2
STYLE
  5
3
330
0
100
AcDbSymbolTable
 70
     1
  0
STYLE
  5
11
330
3
100
AcDbSymbolTableRecord
100
AcDbTextStyleTableRecord
  2
Standard
 70
     0
 40
0.0
 41
1.0
 50
0.0
 71
     0
 42
0.1377952756
  3
txt
  4

  0
ENDTAB
  0
TABLE
  2
VIEW
  5
6
330
0
100
AcDbSymbolTable
 70
     0
  0
ENDTAB
  0
TABLE
  2
UCS
  5
7
330
0
100
AcDbSymbolTable
 70
     0
  0
ENDTAB
  0
TABLE
  2
APPID
  5
9
330
0
100
AcDbSymbolTable
 70
     1
  0
APPID
  5
12
330
9
100
AcDbSymbolTableRecord
100
AcDbRegAppTableRecord
  2
ACAD
 70
     0
  0
ENDTAB
  0
TABLE
  2
DIMSTYLE
  5
A
330
0
100
AcDbSymbolTable
 70
     1
100
AcDbDimStyleTable
  0
DIMSTYLE
105
27
330
A
100
AcDbSymbolTableRecord
100
AcDbDimStyleTableRecord
  2
Standard
 70
     0
178
     0
340
11
  0
ENDTAB
  0
TABLE
  2
BLOCK_RECORD
  5
1
330
0
100
AcDbSymbolTable
 70
     1
  0
BLOCK_RECORD
  5
1F
330
1
100
AcDbSymbolTableRecord
100
AcDbBlockTableRecord
  2
*Model_Space
340
22
 70
     0
280
     1
281
     0
  0
BLOCK_RECORD
  5
1B
330
1
100
AcDbSymbolTableRecord
100
AcDbBlockTableRecord
  2
*Paper_Space
340
1E
 70
     0
280
     1
281
     0
  0
BLOCK_RECORD
  5
23
330
1
100
AcDbSymbolTableRecord
100
AcDbBlockTableRecord
  2
*Paper_Space0
340
26
 70
     0
280
     1
281
     0
  0
ENDTAB
  0
ENDSEC
  0
SECTION
  2
BLOCKS
  0
BLOCK
  5
20
330
1F
100
AcDbEntity
  8
0
100
AcDbBlockBegin
  2
*Model_Space
 70
     0
 10
0.0
 20
0.0
 30
0.0
  3
*Model_Space
  1
*Model_Space
  0
ENDBLK
  5
21
330
1F
100
AcDbEntity
  8
0
100
AcDbBlockEnd
  0
BLOCK
  5
1C
330
1B
100
AcDbEntity
 67
     1
  8
0
100
AcDbBlockBegin
  2
*Paper_Space
 70
     0
 10
0.0
 20
0.0
 30
0.0
  3
*Paper_Space
  1
*Paper_Space
  0
ENDBLK
  5
1D
330
1B
100
AcDbEntity
 67
     1
  8
0
100
AcDbBlockEnd
  0
BLOCK
  5
24
330
23
100
AcDbEntity
  8
0
100
AcDbBlockBegin
  2
*Paper_Space0
 70
     0
 10
0.0
 20
0.0
 30
0.0
  3
*Paper_Space0
  1
*Paper_Space0
  0
ENDBLK
  5
25
330
23
100
AcDbEntity
  8
0
100
AcDbBlockEnd
  0
ENDSEC
  0
SECTION
  2
ENTITIES
  0
SPLINE
  5
70
330
1F
100
AcDbEntity
  8
0
  6
Continuous
 62
     7
370
    15
100
AcDbSpline
210
0.0
220
0.0
230
1.0
 70
     8
 71
     3
 72
    19
 73
    15
 74
     0
 42
0.000000001
 43
0.00000001
 40
0.0
 40
0.0
 40
0.0
 40
0.0
 40
0.046935321489551
 40
0.1257680043967067
 40
0.1977095981125541
 40
0.2622595502545155
 40
0.3224653470796807
 40
0.3893316076726332
 40
0.4772399108985314
 40
0.6079411277512591
 40
0.7293943835220376
 40
0.85657886926275
 40
0.9791689941317444
 40
1.0
 40
1.0
 40
1.0
 40
1.0
 10
6.982049442946622
 20
5.564535825343904
 30
0.0
 10
6.981195130025318
 20
5.565586522497307
 30
0.0
 10
6.978905910992981
 20
5.568401973207243
 30
0.0
 10
6.974365294620712
 20
5.571874256649062
 30
0.0
 10
6.969088067916246
 20
5.574925969409159
 30
0.0
 10
6.964109492605196
 20
5.576892711508045
 30
0.0
 10
6.959608393152665
 20
5.578117032556936
 30
0.0
 10
6.955385444295099
 20
5.578894591507253
 30
0.0
 10
6.950264772424674
 20
5.579538121186025
 30
0.0
 10
6.943457084915058
 20
5.580076012398024
 30
0.0
 10
6.934391304865388
 20
5.580519523617504
 30
0.0
 10
6.924350867422028
 20
5.580782592617866
 30
0.0
 10
6.916508080927986
 20
5.58088687850996
 30
0.0
 10
6.912371452391714
 20
5.580862378680113
 30
0.0
 10
6.911770633440761
 20
5.580858820235854
 30
0.0
  0
SPLINE
  5
71
330
1F
100
AcDbEntity
  8
0
  6
Continuous
 62
     7
370
    15
100
AcDbSpline
210
0.0
220
0.0
230
1.0
 70
     8
 71
     3
 72
    18
 73
    14
 74
     0
 42
0.000000001
 43
0.00000001
 40
0.0
 40
0.0
 40
0.0
 40
0.0
 40
0.0221645150619177
 40
0.145730074916703
 40
0.2696385934477349
 40
0.3973262653757125
 40
0.5314990835872584
 40
0.6320305484502666
 40
0.711542556891496
 40
0.7809764638926681
 40
0.8533864902898456
 40
0.9368432141607383
 40
1.0
 40
1.0
 40
1.0
 40
1.0
 10
3.905312922557962
 20
5.580856521740158
 30
0.0
 10
3.904683335076623
 20
5.580860436064934
 30
0.0
 10
3.900543843165078
 20
5.580886172465721
 30
0.0
 10
3.892867415414274
 20
5.580770772652983
 30
0.0
 10
3.882912559521797
 20
5.580505185155339
 30
0.0
 10
3.87387683716708
 20
5.580055759809741
 30
0.0
 10
3.866826012756992
 20
5.579479837236365
 30
0.0
 10
3.861287327697852
 20
5.578755995773931
 30
0.0
 10
3.856143331900625
 20
5.577674468956756
 30
0.0
 10
3.850711385453953
 20
5.57586747807354
 30
0.0
 10
3.845156383481076
 20
5.57306137833864
 30
0.0
 10
3.840030317640046
 20
5.569532026883826
 30
0.0
 10
3.837282072727787
 20
5.566399594570789
 30
0.0
 10
3.836098209687468
 20
5.565050234903037
 30
0.0
  0
LINE
  5
72
330
1F
100
AcDbEntity
  8
0
  6
Continuous
 62
     7
370
    15
100
AcDbLine
 10
6.9123903651
 20
5.5808688797
 30
0.0
 11
3.9053070173
 21
5.5808688797
 31
0.0
  0
SPLINE
  5
73
330
1F
100
AcDbEntity
  8
0
  6
Continuous
 62
     7
370
    15
100
AcDbSpline
210
0.0
220
0.0
230
1.0
 70
     8
 71
     3
 72
    14
 73
    10
 74
     0
 42
0.000000001
 43
0.00000001
 40
0.0
 40
0.0
 40
0.0
 40
0.0
 40
0.0556915637138648
 40
0.2240854265870099
 40
0.3829103791323951
 40
0.5341890564972772
 40
0.6943427535287462
 40
0.8496405010513985
 40
1.0
 40
1.0
 40
1.0
 40
1.0
 10
3.835983634589035
 20
5.565522965596998
 30
0.0
 10
3.835039480095453
 20
5.564440506724481
 30
0.0
 10
3.831240497837646
 20
5.560085030921054
 30
0.0
 10
3.825279714435044
 20
5.554033700939936
 30
0.0
 10
3.818652144839805
 20
5.54816191686705
 30
0.0
 10
3.813351363630974
 20
5.544332186341549
 30
0.0
 10
3.809582124599147
 20
5.542341689199954
 30
0.0
 10
3.808256823754656
 20
5.541940565639996
 30
0.0
 10
3.807814448227524
 20
5.541882725884428
 30
0.0
 10
3.80759683400972
 20
5.541854273240929
 30
0.0
  0
SPLINE
  5
74
330
1F
100
AcDbEntity
  8
0
  6
Continuous
 62
     7
370
    15
100
AcDbSpline
210
0.0
220
0.0
230
1.0
 70
     8
 71
     3
 72
    14
 73
    10
 74
     0
 42
0.000000001
 43
0.00000001
 40
0.0
 40
0.0
 40
0.0
 40
0.0
 40
0.1738131698714604
 40
0.3218733713917617
 40
0.4778728412971925
 40
0.6336182338127782
 40
0.7947290748738066
 40
0.9645019322187277
 40
1.0
 40
1.0
 40
1.0
 40
1.0
 10
7.010024256373536
 20
5.541874323051208
 30
0.0
 10
7.009818603650179
 20
5.541892103861066
 30
0.0
 10
7.009437768668275
 20
5.541925030993224
 30
0.0
 10
7.007749237337243
 20
5.542502853221489
 30
0.0
 10
7.003877841993058
 20
5.544634130614679
 30
0.0
 10
6.998424344731897
 20
5.548655116035815
 30
0.0
 10
6.991567843887144
 20
5.554865449165165
 30
0.0
 10
6.985828866542295
 20
5.560741202356774
 30
0.0
 10
6.982318709137122
 20
5.564823852424813
 30
0.0
 10
6.981711687926421
 20
5.565529876372206
 30
0.0
  0
LINE
  5
75
330
1F
100
AcDbEntity
  8
0
  6
Continuous
 62
     7
370
    15
100
AcDbLine
 10
7.0585489001
 20
5.5735932634
 30
0.0
 11
6.9711097368
 21
5.5735932634
 31
0.0
  0
LINE
  5
76
330
1F
100
AcDbEntity
  8
0
  6
Continuous
 62
     7
370
    15
100
AcDbLine
 10
3.8464997326
 20
5.5735932634
 30
0.0
 11
3.7591549398
 21
5.5735932634
 31
0.0
  0
SPLINE
  5
77
330
1F
100
AcDbEntity
  8
0
  6
Continuous
 62
     7
370
    15
100
AcDbSpline
210
0.0
220
0.0
230
1.0
 70
     8
 71
     3
 72
    14
 73
    10
 74
     0
 42
0.000000001
 43
0.00000001
 40
0.0
 40
0.0
 40
0.0
 40
0.0
 40
0.0841626130918808
 40
0.2659809672350246
 40
0.4454894466966247
 40
0.6243152587633466
 40
0.8010425861763129
 40
0.9785018504336185
 40
1.0
 40
1.0
 40
1.0
 40
1.0
 10
3.714093951004318
 20
5.506333398065436
 30
0.0
 10
3.71386515119673
 20
5.504450154350208
 30
0.0
 10
3.713142070105379
 20
5.498498497592961
 30
0.0
 10
3.711906378144105
 20
5.48665884469863
 30
0.0
 10
3.710421446344724
 20
5.47129948283571
 30
0.0
 10
3.708976701336035
 20
5.454909730952338
 30
0.0
 10
3.707609752386854
 20
5.437868472058938
 30
0.0
 10
3.706673073427261
 20
5.425555162001579
 30
0.0
 10
3.706234712602046
 20
5.41905131946727
 30
0.0
 10
3.706187345950041
 20
5.418348553096962
 30
0.0
  0
SPLINE
  5
78
330
1F
100
AcDbEntity
  8
0
  6
Continuous
 62
     7
370
    15
100
AcDbSpline
210
0.0
220
0.0
230
1.0
 70
     8
 71
     3
 72
    20
 73
    16
 74
     0
 42
0.000000001
 43
0.00000001
 40
0.0
 40
0.0
 40
0.0
 40
0.0
 40
0.0683141741141091
 40
0.1358402056361826
 40
0.1975955294277376
 40
0.2545095378801115
 40
0.3069458801338708
 40
0.3555694276516532
 40
0.4040393818160817
 40
0.4586627665668881
 40
0.5296134890799447
 40
0.6426262324655218
 40
0.7844731604859909
 40
0.9204011952949837
 40
0.9999999999999999
 40
0.9999999999999999
 40
0.9999999999999999
 40
0.9999999999999999
 10
3.759130168588039
 20
5.57349338030711
 30
0.0
 10
3.756196314565336
 20
5.573342177468405
 30
0.0
 10
3.75036245447819
 20
5.573041516222495
 30
0.0
 10
3.742332354583256
 20
5.570124285703312
 30
0.0
 10
3.735521221823445
 20
5.566064838202244
 30
0.0
 10
3.73016681604955
 20
5.561267108044643
 30
0.0
 10
3.726186715845591
 20
5.556268589695867
 30
0.0
 10
3.72340359556634
 20
5.551490601472739
 30
0.0
 10
3.721532387472923
 20
5.547206330221579
 30
0.0
 10
3.720191196798759
 20
5.543221890619834
 30
0.0
 10
3.718982323969072
 20
5.538629152792563
 30
0.0
 10
3.717770235444445
 20
5.532715095696522
 30
0.0
 10
3.71640850278263
 20
5.524370370553654
 30
0.0
 10
3.715155316460219
 20
5.5154003792633
 30
0.0
 10
3.714380213561638
 20
5.508778867917922
 30
0.0
 10
3.714093951004318
 20
5.506333398065436
 30
0.0
  0
SPLINE
  5
79
330
1F
100
AcDbEntity
  8
0
  6
Continuous
 62
     7
370
    15
100
AcDbSpline
210
0.0
220
0.0
230
1.0
 70
     8
 71
     3
 72
    18
 73
    14
 74
     0
 42
0.000000001
 43
0.00000001
 40
0.0
 40
0.0
 40
0.0
 40
0.0
 40
0.0834772643424502
 40
0.2534063543886744
 40
0.4453861465764961
 40
0.5219710048476642
 40
0.584813951914388
 40
0.6481000724007092
 40
0.718193356240041
 40
0.7948206595823117
 40
0.8763962562792209
 40
0.9611647790826796
 40
1.0
 40
1.0
 40
1.0
 40
1.0
 10
7.102003963288903
 20
5.51890952622508
 30
0.0
 10
7.101754024191989
 20
5.520768205821608
 30
0.0
 10
7.100995300773496
 20
5.526410475297527
 30
0.0
 10
7.09966284189499
 20
5.53411688257841
 30
0.0
 10
7.098306181665679
 20
5.540676110500551
 30
0.0
 10
7.09631550244649
 20
5.546853238901743
 30
0.0
 10
7.094197649418
 20
5.551723864679671
 30
0.0
 10
7.090973907028888
 20
5.557100848408066
 30
0.0
 10
7.086221254836111
 20
5.562668415113756
 30
0.0
 10
7.079773250479057
 20
5.567794451528866
 30
0.0
 10
7.071805686343801
 20
5.571589461157915
 30
0.0
 10
7.064467084674813
 20
5.573569004549436
 30
0.0
 10
7.059959085059608
 20
5.573373586270911
 30
0.0
 10
7.058542710800369
 20
5.573312187547949
 30
0.0
  0
LWPOLYLINE
  5
7A
330
1F
100
AcDbEntity
  8
0
  6
Continuous
 62
     7
370
    15
100
AcDbPolyline
 90
        3
 70
   128
 43
0.0
 10
7.3294835258
 20
2.3185164223
 10
7.2756088507
 20
3.0848027402
 10
7.1114681931
 20
5.4188741687
  0
SPLINE
  5
7B
330
1F
100
AcDbEntity
  8
0
  6
Continuous
 62
     7
370
    15
100
AcDbSpline
210
0.0
220
0.0
230
1.0
 70
     8
 71
     3
 72
    31
 73
    27
 74
     0
 42
0.000000001
 43
0.00000001
 40
0.0
 40
0.0
 40
0.0
 40
0.0
 40
0.0530861598599017
 40
0.1038493187165944
 40
0.1521767699214345
 40
0.1979717438793089
 40
0.241154000930929
 40
0.2809600926720058
 40
0.3181382996768372
 40
0.3526559698030671
 40
0.3844923256755262
 40
0.4142035840148333
 40
0.4411100429005123
 40
0.4668277761502873
 40
0.4932607825735468
 40
0.520391936998581
 40
0.5481983085032203
 40
0.576654467911085
 40
0.6378989018947924
 40
0.7012585087461265
 40
0.7655268904194891
 40
0.8303137688760537
 40
0.8953092828464333
 40
0.9617615851118357
 40
0.9947110488678198
 40
1.0
 40
1.0
 40
1.0
 40
1.0
 10
7.621863698841485
 20
2.851960768006899
 30
0.0
 10
7.619108443474761
 20
2.901287662506419
 30
0.0
 10
7.613718500154699
 20
2.997782952459569
 30
0.0
 10
7.605794486462081
 20
3.139181693303644
 30
0.0
 10
7.598237117717758
 20
3.27380484771333
 30
0.0
 10
7.591064162532318
 20
3.401383457444929
 30
0.0
 10
7.58432912664524
 20
3.521044034376896
 30
0.0
 10
7.578040013785469
 20
3.632698176987988
 30
0.0
 10
7.572201720399648
 20
3.736301642883096
 30
0.0
 10
7.566779565445145
 20
3.832500190791714
 30
0.0
 10
7.561748411387699
 20
3.92176108086161
 30
0.0
 10
7.557116562015302
 20
4.003950285935243
 30
0.0
 10
7.552806263004661
 20
4.080454739595805
 30
0.0
 10
7.548668837271278
 20
4.153913401355161
 30
0.0
 10
7.544520883502043
 20
4.22758087669899
 30
0.0
 10
7.540265038183705
 20
4.303189200301285
 30
0.0
 10
7.535904902048297
 20
4.380677524771683
 30
0.0
 10
7.529763516692698
 20
4.489863656707968
 30
0.0
 10
7.521769059957528
 20
4.632085886181056
 30
0.0
 10
7.511913948338438
 20
4.807585389372089
 30
0.0
 10
7.501885676487115
 20
4.986377491868178
 30
0.0
 10
7.491786050361299
 20
5.166690705333635
 30
0.0
 10
7.481588698556141
 20
5.349034161942388
 30
0.0
 10
7.473063720447186
 20
5.501794439813641
 30
0.0
 10
7.467641960149243
 20
5.599074592748124
 30
0.0
 10
7.465665180039373
 20
5.634606170628635
 30
0.0
 10
7.465391761451529
 20
5.639520725261952
 30
0.0
  0
SPLINE
  5
7C
330
1F
100
AcDbEntity
  8
0
  6
Continuous
 62
     7
370
    15
100
AcDbSpline
210
0.0
220
0.0
230
1.0
 70
     8
 71
     3
 72
    44
 73
    40
 74
     0
 42
0.000000001
 43
0.00000001
 40
0.0
 40
0.0
 40
0.0
 40
0.0
 40
0.0124903637977916
 40
0.0419341729811208
 40
0.0677262145906568
 40
0.0890069934885932
 40
0.1001047298333861
 40
0.1066124574680905
 40
0.1143306529885974
 40
0.1233728366388265
 40
0.1337411000430895
 40
0.1438235391324673
 40
0.1515169192852799
 40
0.1568206592485196
 40
0.1606801195024798
 40
0.1654969648440681
 40
0.1717991097961764
 40
0.1786406757890855
 40
0.1851237013333774
 40
0.1911259499992952
 40
0.1966193261909623
 40
0.2062577631807873
 40
0.2145078676739503
 40
0.2266467781934895
 40
0.2403294548221158
 40
0.2558509392464297
 40
0.2732054303030528
 40
0.3037261233262751
 40
0.3376710846773749
 40
0.3706939032527044
 40
0.4062606329798202
 40
0.4444542730828671
 40
0.4833598236185924
 40
0.5751418614428679
 40
0.6653980532255501
 40
0.7537201743304269
 40
0.8508687133441708
 40
0.9447868825880015
 40
1.0
 40
1.0
 40
1.0
 40
1.0
 10
7.447942911872971
 20
5.953822126814711
 30
0.0
 10
7.447368147540232
 20
5.964202817356567
 30
0.0
 10
7.445438478609635
 20
5.999054137934004
 30
0.0
 10
7.44232770114324
 20
6.05532904812984
 30
0.0
 10
7.438826256102399
 20
6.118952707573031
 30
0.0
 10
7.436149446406684
 20
6.167205065059362
 30
0.0
 10
7.434400495230989
 20
6.199673152537104
 30
0.0
 10
7.432888964897161
 20
6.220405523727125
 30
0.0
 10
7.431326242680398
 20
6.238887371293339
 30
0.0
 10
7.429247254669978
 20
6.25883787586123
 30
0.0
 10
7.426765389229254
 20
6.277980825647655
 30
0.0
 10
7.424263887280527
 20
6.292633220619154
 30
0.0
 10
7.421760085036794
 20
6.30312134520063
 30
0.0
 10
7.419407052389534
 20
6.310716881497504
 30
0.0
 10
7.415085999613257
 20
6.319825772559732
 30
0.0
 10
7.408603909998673
 20
6.328876546785778
 30
0.0
 10
7.397912087335741
 20
6.337918511036698
 30
0.0
 10
7.38439232541412
 20
6.343482912503602
 30
0.0
 10
7.371516396251178
 20
6.344474949335139
 30
0.0
 10
7.361774860390672
 20
6.342349278235818
 30
0.0
 10
7.35137492067747
 20
6.337114200654057
 30
0.0
 10
7.34191578065164
 20
6.329601199844046
 30
0.0
 10
7.333997490484474
 20
6.320031049828796
 30
0.0
 10
7.330671338645803
 20
6.313774441597029
 30
0.0
 10
7.326217719335367
 20
6.305876606775183
 30
0.0
 10
7.322150507457252
 20
6.297855124749836
 30
0.0
 10
7.31703257819956
 20
6.287489546629061
 30
0.0
 10
7.311138146976888
 20
6.274912713097376
 30
0.0
 10
7.304673570096224
 20
6.260546319770511
 30
0.0
 10
7.298278046718362
 20
6.245945155580382
 30
0.0
 10
7.291894642364029
 20
6.231128181937201
 30
0.0
 10
7.285430376512397
 20
6.215998335929349
 30
0.0
 10
7.275787300189694
 20
6.193462344512126
 30
0.0
 10
7.263132860357699
 20
6.16416281045497
 30
0.0
 10
7.24763451225622
 20
6.128552229139831
 30
0.0
 10
7.231811508268856
 20
6.092352203764332
 30
0.0
 10
7.215773166786076
 20
6.055683779926224
 30
0.0
 10
7.201633399956605
 20
6.0232799509803
 30
0.0
 10
7.193074264054237
 20
6.00362074766997
 30
0.0
 10
7.189905401328515
 20
5.996342289038386
 30
0.0
  0
SPLINE
  5
7D
330
1F
100
AcDbEntity
  8
0
  6
Continuous
 62
     7
370
    15
100
AcDbSpline
210
0.0
220
0.0
230
1.0
 70
     8
 71
     3
 72
    18
 73
    14
 74
     0
 42
0.000000001
 43
0.00000001
 40
0.0
 40
0.0
 40
0.0
 40
0.0
 40
0.0848939830901838
 40
0.1864352601711751
 40
0.2877295276117467
 40
0.391498939603568
 40
0.4986001697098681
 40
0.6089742404434159
 40
0.6892909101331731
 40
0.77115423453719
 40
0.8545113308653952
 40
0.9386624064855517
 40
1.0
 40
1.0
 40
1.0
 40
1.0
 10
7.149008516896206
 20
5.902267708246477
 30
0.0
 10
7.144963528482918
 20
5.892950968213519
 30
0.0
 10
7.136080349254311
 20
5.872490521091531
 30
0.0
 10
7.122373341167099
 20
5.840907622306379
 30
0.0
 10
7.107768213746939
 20
5.807262793677583
 30
0.0
 10
7.092888678482407
 20
5.773002879585761
 30
0.0
 10
7.077563759734232
 20
5.737750378178515
 30
0.0
 10
7.063349912429256
 20
5.705076414254783
 30
0.0
 10
7.050340173581981
 20
5.675180094773345
 30
0.0
 10
7.038617001796285
 20
5.648243794982066
 30
0.0
 10
7.026729566567692
 20
5.6209271076399
 30
0.0
 10
7.015772983075001
 20
5.595748587777094
 30
0.0
 10
7.008997589670464
 20
5.580163774619861
 30
0.0
 10
7.006141103807887
 20
5.573593263389515
 30
0.0
  0
LWPOLYLINE
  5
7E
330
1F
100
AcDbEntity
  8
0
  6
Continuous
 62
     7
370
    15
100
AcDbPolyline
 90
        6
 70
   128
 43
0.0
 10
7.3253706674
 20
2.2991184382
 10
7.3420951484
 20
2.2930400897
 10
7.3593185724
 20
2.2867778878
 10
7.3863600123
 20
2.276942369
 10
7.4137909273
 20
2.2669628062
 10
7.4213003236
 20
2.2642308521
  0
SPLINE
  5
7F
330
1F
100
AcDbEntity
  8
0
  6
Continuous
 62
     7
370
    15
100
AcDbSpline
210
0.0
220
0.0
230
1.0
 70
     8
 71
     3
 72
    57
 73
    53
 74
     0
 42
0.000000001
 43
0.00000001
 40
0.0
 40
0.0
 40
0.0
 40
0.0
 40
0.0043713515206628
 40
0.0697771868300731
 40
0.1318470782805613
 40
0.1890137188255676
 40
0.2412847731258848
 40
0.2886716341281795
 40
0.3410814930186885
 40
0.3859900013924171
 40
0.4233282472793365
 40
0.4529985615167084
 40
0.4589971882662093
 40
0.4616245639980806
 40
0.4641506746888038
 40
0.4667233403795443
 40
0.469481685289469
 40
0.4759405444223913
 40
0.4827921090461038
 40
0.4860459367538
 40
0.4893553788646226
 40
0.4966376771555253
 40
0.5055056700152518
 40
0.5206043960380756
 40
0.5382192267078802
 40
0.5524810302569748
 40
0.5666752042333426
 40
0.5706771488928053
 40
0.5720144805220364
 40
0.5725620944340581
 40
0.573061823218513
 40
0.5735497033931619
 40
0.5740643215149337
 40
0.5752930006398579
 40
0.5769220269828145
 40
0.5790255851731558
 40
0.584784640063442
 40
0.5956751008405341
 40
0.6100765111948145
 40
0.6294648250892073
 40
0.6533929041122125
 40
0.6807407404100199
 40
0.711013885779094
 40
0.7327018823070135
 40
0.7567625283337245
 40
0.7828742216920282
 40
0.8106206327448124
 40
0.8393242857145647
 40
0.8679900831341247
 40
0.8993580153241396
 40
0.9351559182064132
 40
1.0
 40
1.0
 40
1.0
 40
1.0
 10
7.540319707631457
 20
2.22105525788952
 30
0.0
 10
7.540435195938434
 20
2.221013637698124
 30
0.0
 10
7.54227866451664
 20
2.220349280266052
 30
0.0
 10
7.545693923137505
 20
2.219126626076708
 30
0.0
 10
7.550704073972959
 20
2.217312292158928
 30
0.0
 10
7.55561982085076
 20
2.215508782012845
 30
0.0
 10
7.560397204854829
 20
2.213735647872282
 30
0.0
 10
7.565366056465293
 20
2.211880788121142
 30
0.0
 10
7.570536704081167
 20
2.209954954497218
 30
0.0
 10
7.575973955739252
 20
2.207997288389057
 30
0.0
 10
7.581240353955845
 20
2.206198015745629
 30
0.0
 10
7.585411147165951
 20
2.204946266713381
 30
0.0
 10
7.588045601080324
 20
2.204215730807719
 30
0.0
 10
7.590144603941883
 20
2.203799240490039
 30
0.0
 10
7.592119574349821
 20
2.203491561464263
 30
0.0
 10
7.59457173683868
 20
2.203231260420147
 30
0.0
 10
7.59865193338503
 20
2.203040290401166
 30
0.0
 10
7.604546763121792
 20
2.203395851257238
 30
0.0
 10
7.610416202675863
 20
2.204781636786916
 30
0.0
 10
7.614386247250212
 20
2.206288080085827
 30
0.0
 10
7.617796324362315
 20
2.207922895799993
 30
0.0
 10
7.620943581645668
 20
2.21004919434315
 30
0.0
 10
7.623277998000433
 20
2.212437213767978
 30
0.0
 10
7.623833854465239
 20
2.214172929210908
 30
0.0
 10
7.622947036076434
 20
2.21495779079984
 30
0.0
 10
7.622925848399928
 20
2.216446462288364
 30
0.0
 10
7.623326515367772
 20
2.217877264555324
 30
0.0
 10
7.624611000800863
 20
2.219835451367319
 30
0.0
 10
7.625426683118839
 20
2.220888779190395
 30
0.0
 10
7.625882317358958
 20
2.22144648757864
 30
0.0
 10
7.62622298434517
 20
2.221852522676216
 30
0.0
 10
7.626581550826597
 20
2.222269982340364
 30
0.0
 10
7.627104580294759
 20
2.222866544475523
 30
0.0
 10
7.627795672927101
 20
2.223632426463586
 30
0.0
 10
7.628597047645763
 20
2.224499165619701
 30
0.0
 10
7.629857437190772
 20
2.225833755922848
 30
0.0
 10
7.631834240553919
 20
2.227942960111648
 30
0.0
 10
7.633601631882297
 20
2.229263837206365
 30
0.0
 10
7.635700819722894
 20
2.230466046061637
 30
0.0
 10
7.638009860608693
 20
2.231396941548664
 30
0.0
 10
7.64060743716572
 20
2.232150263419026
 30
0.0
 10
7.643443227025355
 20
2.232495493447882
 30
0.0
 10
7.646099000845903
 20
2.232877185055379
 30
0.0
 10
7.648060692441146
 20
2.240305425063531
 30
0.0
 10
7.649458422806306
 20
2.251921995516516
 30
0.0
 10
7.650438842034789
 20
2.269289533175645
 30
0.0
 10
7.650774140547277
 20
2.292819242427911
 30
0.0
 10
7.650409604638966
 20
2.320919822984302
 30
0.0
 10
7.649272752445234
 20
2.352819201090223
 30
0.0
 10
7.647362758578758
 20
2.387465660816677
 30
0.0
 10
7.644854294259079
 20
2.435100673868764
 30
0.0
 10
7.642875442584209
 20
2.471435924468499
 30
0.0
 10
7.641600459581082
 20
2.494846889280731
 30
0.0
  0
LINE
  5
80
330
1F
100
AcDbEntity
  8
0
  6
Continuous
 62
     7
370
    15
100
AcDbLine
 10
7.6242384849
 20
2.8093289273
 30
0.0
 11
7.6218636988
 21
2.851960768
 31
0.0
  0
SPLINE
  5
81
330
1F
100
AcDbEntity
  8
0
  6
Continuous
 62
     7
370
    15
100
AcDbSpline
210
0.0
220
0.0
230
1.0
 70
     8
 71
     3
 72
    11
 73
     7
 74
     0
 42
0.000000001
 43
0.00000001
 40
0.0
 40
0.0
 40
0.0
 40
0.0
 40
0.3392231517423208
 40
0.6630988281900324
 40
0.9707697162533587
 40
1.0
 40
1.0
 40
1.0
 40
1.0
 10
7.47038379084356
 20
3.863242686947608
 30
0.0
 10
7.473738738694359
 20
3.803888508304409
 30
0.0
 10
7.480296846468184
 20
3.687865512514358
 30
0.0
 10
7.489910319424584
 20
3.518009245001303
 30
0.0
 10
7.496457019217087
 20
3.402392627986517
 30
0.0
 10
7.499800021861625
 20
3.343444897775288
 30
0.0
 10
7.500090068094889
 20
3.338330463559944
 30
0.0
  0
SPLINE
  5
82
330
1F
100
AcDbEntity
  8
0
  6
Continuous
 62
     7
370
    15
100
AcDbSpline
210
0.0
220
0.0
230
1.0
 70
     8
 71
     3
 72
    16
 73
    12
 74
     0
 42
0.000000001
 43
0.00000001
 40
0.0
 40
0.0
 40
0.0
 40
0.0
 40
0.0173047192244796
 40
0.0932420206463882
 40
0.175062259484186
 40
0.2566761326068646
 40
0.3390419790085892
 40
0.4233943204989279
 40
0.5097420990524729
 40
0.7573111657037385
 40
1.0
 40
1.0
 40
1.0
 40
1.0
 10
7.612702689532447
 20
2.295338420425667
 30
0.0
 10
7.612752867468721
 20
2.29529966461898
 30
0.0
 10
7.613023238349025
 20
2.295090838940832
 30
0.0
 10
7.611193899132925
 20
2.295368525807807
 30
0.0
 10
7.607837855878391
 20
2.296592270481471
 30
0.0
 10
7.604133363179717
 20
2.298067080744851
 30
0.0
 10
7.600486785047811
 20
2.299537938174833
 30
0.0
 10
7.596784953319384
 20
2.30099068634674
 30
0.0
 10
7.59072646316674
 20
2.303329786583563
 30
0.0
 10
7.582488395916111
 20
2.306410893328017
 30
0.0
 10
7.57566222156146
 20
2.308861604617909
 30
0.0
 10
7.572283109682526
 20
2.310074762559866
 30
0.0
  0
SPLINE
  5
83
330
1F
100
AcDbEntity
  8
0
  6
Continuous
 62
     7
370
    15
100
AcDbSpline
210
0.0
220
0.0
230
1.0
 70
     8
 71
     3
 72
    16
 73
    12
 74
     0
 42
0.000000001
 43
0.00000001
 40
0.0
 40
0.0
 40
0.0
 40
0.0
 40
0.0003317386023671
 40
0.1123841083928512
 40
0.2414952371584235
 40
0.3677739599820346
 40
0.4951106111717032
 40
0.6237046144296184
 40
0.7536238469978552
 40
0.884942164857199
 40
1.0
 40
1.0
 40
1.0
 40
1.0
 10
7.475577055115057
 20
2.344681846515186
 30
0.0
 10
7.475560219452494
 20
2.344687972253175
 30
0.0
 10
7.469856750176244
 20
2.346763207384219
 30
0.0
 10
7.457611828742158
 20
2.351251362481761
 30
0.0
 10
7.43899387201028
 20
2.358083216660823
 30
0.0
 10
7.419623175498304
 20
2.365210453388324
 30
0.0
 10
7.400277028478769
 20
2.372326950431213
 30
0.0
 10
7.380754100586459
 20
2.379494588599214
 30
0.0
 10
7.3610393957861
 20
2.386701825278195
 30
0.0
 10
7.342020142411593
 20
2.39361557714767
 30
0.0
 10
7.329557499166788
 20
2.398135233224574
 30
0.0
 10
7.32373743608669
 20
2.400245915762078
 30
0.0
  0
SPLINE
  5
84
330
1F
100
AcDbEntity
  8
0
  6
Continuous
 62
     7
370
    15
100
AcDbSpline
210
0.0
220
0.0
230
1.0
 70
     8
 71
     3
 72
    17
 73
    13
 74
     0
 42
0.000000001
 43
0.00000001
 40
0.0
 40
0.0
 40
0.0
 40
0.0
 40
0.0138868621585858
 40
0.1235080674887516
 40
0.2324528743917876
 40
0.3389115205603505
 40
0.442840651458051
 40
0.5632167570272473
 40
0.6799081539292842
 40
0.7929835249146688
 40
0.9051582128009537
 40
0.9999999999999999
 40
0.9999999999999999
 40
0.9999999999999999
 40
0.9999999999999999
 10
7.09682613814822
 20
5.545038160390184
 30
0.0
 10
7.097447843956246
 20
5.546465920026857
 30
0.0
 10
7.102977219996626
 20
5.559164241040651
 30
0.0
 10
7.113081173913788
 20
5.582383327707075
 30
0.0
 10
7.127314679741135
 20
5.615089120191533
 30
0.0
 10
7.141273281777718
 20
5.647183890542199
 30
0.0
 10
7.155739000914783
 20
5.680471274788951
 30
0.0
 10
7.17064913867357
 20
5.714820549397053
 30
0.0
 10
7.185956034018781
 20
5.750143944262514
 30
0.0
 10
7.20090262385271
 20
5.784682205605407
 30
0.0
 10
7.214889275614155
 20
5.817017311021496
 30
0.0
 10
7.223929958535201
 20
5.837900090556938
 30
0.0
 10
7.228071824661454
 20
5.847467252455568
 30
0.0
  0
SPLINE
  5
85
330
1F
100
AcDbEntity
  8
0
  6
Continuous
 62
     7
370
    15
100
AcDbSpline
210
0.0
220
0.0
230
1.0
 70
     8
 71
     3
 72
    26
 73
    22
 74
     0
 42
0.000000001
 43
0.00000001
 40
0.0
 40
0.0
 40
0.0
 40
0.0
 40
0.0379834409544561
 40
0.1755686151465473
 40
0.3170989031510092
 40
0.461207518683538
 40
0.5248295956492819
 40
0.5882702099515369
 40
0.6512933599325245
 40
0.7132823120237506
 40
0.7716237543425158
 40
0.8030643899528294
 40
0.8338423273172744
 40
0.8641065216204269
 40
0.8939593450329394
 40
0.9233966116630699
 40
0.9513588345130756
 40
0.9762524841942892
 40
0.9885344629946324
 40
0.9994972029748364
 40
1.0
 40
1.0
 40
1.0
 40
1.0
 10
7.276644644058562
 20
5.959225893740002
 30
0.0
 10
7.278362693699278
 20
5.963165210851896
 30
0.0
 10
7.286303933055009
 20
5.981373683612108
 30
0.0
 10
7.300650473890467
 20
6.014057145417707
 30
0.0
 10
7.319809325894103
 20
6.057419907094283
 30
0.0
 10
7.335607770281114
 20
6.093261079823193
 30
0.0
 10
7.3478462982695
 20
6.121395044098374
 30
0.0
 10
7.356412474814215
 20
6.141312375482624
 30
0.0
 10
7.364875961101366
 20
6.16126325194104
 30
0.0
 10
7.373120963208426
 20
6.181119045924887
 30
0.0
 10
7.379712974819773
 20
6.197031964633232
 30
0.0
 10
7.384792912045981
 20
6.209029526631631
 30
0.0
 10
7.388593557284561
 20
6.217824098410219
 30
0.0
 10
7.392223426877687
 20
6.226014269467981
 30
0.0
 10
7.395671881467231
 20
6.23361226745491
 30
0.0
 10
7.398908927437587
 20
6.240506347082022
 30
0.0
 10
7.401727410917313
 20
6.246684934662659
 30
0.0
 10
7.403789199722405
 20
6.251525984575116
 30
0.0
 10
7.404817294724011
 20
6.255111430709286
 30
0.0
 10
7.405162352697971
 20
6.256495591779186
 30
0.0
 10
7.40447096048336
 20
6.256637198851631
 30
0.0
 10
7.404440640931073
 20
6.256643408732138
 30
0.0
  0
SPLINE
  5
86
330
1F
100
AcDbEntity
  8
0
  6
Continuous
 62
     7
370
    15
100
AcDbSpline
210
0.0
220
0.0
230
1.0
 70
     8
 71
     3
 72
    11
 73
     7
 74
     0
 42
0.000000001
 43
0.00000001
 40
0.0
 40
0.0
 40
0.0
 40
0.0
 40
0.0730022110922134
 40
0.2104159578532736
 40
0.3485598060599972
 40
1.0
 40
1.0
 40
1.0
 40
1.0
 10
7.344456131487912
 20
6.113635075857566
 30
0.0
 10
7.344675918587776
 20
6.109620716407028
 30
0.0
 10
7.34530941601819
 20
6.098050035515111
 30
0.0
 10
7.346360278567319
 20
6.078882243103637
 30
0.0
 10
7.34915707178052
 20
6.027904492106228
 30
0.0
 10
7.351548218588419
 20
5.984480137451534
 30
0.0
 10
7.353521015728595
 20
5.948653210224051
 30
0.0
  0
SPLINE
  5
87
330
1F
100
AcDbEntity
  8
0
  6
Continuous
 62
     7
370
    15
100
AcDbSpline
210
0.0
220
0.0
230
1.0
 70
     8
 71
     3
 72
    20
 73
    16
 74
     0
 42
0.000000001
 43
0.00000001
 40
0.0
 40
0.0
 40
0.0
 40
0.0
 40
0.0435216806823533
 40
0.0936173146393505
 40
0.1481881275508312
 40
0.2074056450370935
 40
0.271430762675617
 40
0.3404097156790278
 40
0.4144696710705681
 40
0.4976181552854705
 40
0.586540459298406
 40
0.6812785294699403
 40
0.7818240409500837
 40
0.8881097413414981
 40
1.0
 40
1.0
 40
1.0
 40
1.0
 10
7.370935744086998
 20
5.634079225618219
 30
0.0
 10
7.372363901770843
 20
5.608389013272884
 30
0.0
 10
7.375435940468493
 20
5.553128079996008
 30
0.0
 10
7.380308612469835
 20
5.465654199923527
 30
0.0
 10
7.385704978638516
 20
5.368915079930791
 30
0.0
 10
7.391569065922715
 20
5.263953504780752
 30
0.0
 10
7.397917484188232
 20
5.150487169858428
 30
0.0
 10
7.404765698374041
 20
5.028259931680316
 30
0.0
 10
7.412256395654286
 20
4.894745041413072
 30
0.0
 10
7.42041821351122
 20
4.749458711555181
 30
0.0
 10
7.429276878718331
 20
4.59196743842606
 30
0.0
 10
7.438724267149929
 20
4.424208094488185
 30
0.0
 10
7.448759996763877
 20
4.246200573461836
 30
0.0
 10
7.459376663940488
 20
4.058069460464679
 30
0.0
 10
7.466652447827536
 20
3.929287670992851
 30
0.0
 10
7.47038379084356
 20
3.863242686947608
 30
0.0
  0
SPLINE
  5
88
330
1F
100
AcDbEntity
  8
0
  6
Continuous
 62
     7
370
    15
100
AcDbSpline
210
0.0
220
0.0
230
1.0
 70
     8
 71
     3
 72
    10
 73
     6
 74
     0
 42
0.000000001
 43
0.00000001
 40
0.0
 40
0.0
 40
0.0
 40
0.0
 40
0.4563253227485869
 40
0.8836432453130256
 40
1.0
 40
1.0
 40
1.0
 40
1.0
 10
3.208618349976552
 20
3.082222968266188
 30
0.0
 10
3.206278621428134
 20
3.040715341753024
 30
0.0
 10
3.201747894719341
 20
2.960338619338386
 30
0.0
 10
3.196624017728317
 20
2.869377923550463
 30
0.0
 10
3.193844485566352
 20
2.819924705833075
 30
0.0
 10
3.193249612647957
 20
2.809340773633925
 30
0.0
  0
SPLINE
  5
89
330
1F
100
AcDbEntity
  8
0
  6
Continuous
 62
     7
370
    15
100
AcDbSpline
210
0.0
220
0.0
230
1.0
 70
     8
 71
     3
 72
    63
 73
    59
 74
     0
 42
0.000000001
 43
0.00000001
 40
0.0
 40
0.0
 40
0.0
 40
0.0
 40
0.004326621759137
 40
0.0561432572874901
 40
0.1002275602798384
 40
0.1216080072101054
 40
0.1413122501340836
 40
0.160978076931537
 40
0.1804243127419821
 40
0.1989545197778398
 40
0.2165545578964026
 40
0.2330260241004594
 40
0.2481954136487124
 40
0.269881627243438
 40
0.2890462296996377
 40
0.3068122936127854
 40
0.3226004555767141
 40
0.3358579948778944
 40
0.3530041717625615
 40
0.3677299528162791
 40
0.3804519922428679
 40
0.3889363572514805
 40
0.3929170200961502
 40
0.3937265567925296
 40
0.3944109788078004
 40
0.3950398084317915
 40
0.3957001424716786
 40
0.3964683164978469
 40
0.3979241677327156
 40
0.3998203437388817
 40
0.4123399762196209
 40
0.4331832107040684
 40
0.4517355763683785
 40
0.4712531832140436
 40
0.4868504465071951
 40
0.4984921775850141
 40
0.5062379333716758
 40
0.5086940324314372
 40
0.5095916606064397
 40
0.5102941418971464
 40
0.5105863506440874
 40
0.510850691946409
 40
0.5111001550566449
 40
0.5113500798167234
 40
0.5119071862594268
 40
0.5126154137354592
 40
0.5170147614346834
 40
0.5322210309977515
 40
0.5517375148969571
 40
0.5757454671192014
 40
0.6100234988410231
 40
0.6506870411344318
 40
0.694366991442841
 40
0.7390884998501582
 40
0.7848669722182188
 40
0.8317039694313484
 40
0.9462992893216641
 40
1.0
 40
1.0
 40
1.0
 40
1.0
 10
3.175638770997967
 20
2.494872822406862
 30
0.0
 10
3.175542919766205
 20
2.493152701972922
 30
0.0
 10
3.174299131733469
 20
2.470832016351586
 30
0.0
 10
3.172086002460501
 20
2.43097010041493
 30
0.0
 10
3.169534430555086
 20
2.38438975994571
 30
0.0
 10
3.167652799694763
 20
2.350445090154069
 30
0.0
 10
3.166738063011605
 20
2.326504472547593
 30
0.0
 10
3.166257958638105
 20
2.30463094568769
 30
0.0
 10
3.166204116029268
 20
2.285193254290745
 30
0.0
 10
3.166549392583517
 20
2.268948403901666
 30
0.0
 10
3.167240928265156
 20
2.256428002473407
 30
0.0
 10
3.168160120204268
 20
2.247157069528241
 30
0.0
 10
3.169452732209714
 20
2.240160242436519
 30
0.0
 10
3.171150474531992
 20
2.236681618096352
 30
0.0
 10
3.17324803437763
 20
2.237322976218697
 30
0.0
 10
3.175128271118783
 20
2.236916025968092
 30
0.0
 10
3.176869638974846
 20
2.236493350224585
 30
0.0
 10
3.178685298975616
 20
2.235772886687626
 30
0.0
 10
3.180669529737277
 20
2.234543895387799
 30
0.0
 10
3.183394516219567
 20
2.23178294548668
 30
0.0
 10
3.186589385793315
 20
2.228105856425778
 30
0.0
 10
3.190168953927442
 20
2.224204592690549
 30
0.0
 10
3.192433593180054
 20
2.22204921231175
 30
0.0
 10
3.193666099956938
 20
2.220876449739639
 30
0.0
 10
3.194235455989111
 20
2.220319350403925
 30
0.0
 10
3.194804420455709
 20
2.219748823295403
 30
0.0
 10
3.195346976764538
 20
2.219190093980428
 30
0.0
 10
3.195967509758229
 20
2.218533791914283
 30
0.0
 10
3.196627196827002
 20
2.217809976315588
 30
0.0
 10
3.19846629442197
 20
2.215700561277542
 30
0.0
 10
3.200075609017232
 20
2.213421788337629
 30
0.0
 10
3.201445581465481
 20
2.211036022649862
 30
0.0
 10
3.202159216541495
 20
2.209084434812521
 30
0.0
 10
3.202645492674272
 20
2.207503528319986
 30
0.0
 10
3.203643865860047
 20
2.206010670842761
 30
0.0
 10
3.204957236724444
 20
2.204824953845949
 30
0.0
 10
3.206337773478606
 20
2.204006620074094
 30
0.0
 10
3.207707611504433
 20
2.203496790081888
 30
0.0
 10
3.208475087469658
 20
2.203275814736815
 30
0.0
 10
3.208952456813658
 20
2.203158210694143
 30
0.0
 10
3.209352902396861
 20
2.203072650671189
 30
0.0
 10
3.209643154672795
 20
2.203016063215641
 30
0.0
 10
3.20994121468333
 20
2.202963340300015
 30
0.0
 10
3.210359721059656
 20
2.202896635739444
 30
0.0
 10
3.210913142560339
 20
2.202823355637415
 30
0.0
 10
3.212510347122172
 20
2.20266407120842
 30
0.0
 10
3.215852893440806
 20
2.202608542326837
 30
0.0
 10
3.221707289918401
 20
2.202932494521368
 30
0.0
 10
3.227376734255953
 20
2.203977399645988
 30
0.0
 10
3.233101128714896
 20
2.205384177397714
 30
0.0
 10
3.238303871321004
 20
2.207004078402337
 30
0.0
 10
3.242683581259198
 20
2.208518674549275
 30
0.0
 10
3.24708355364136
 20
2.210081519617225
 30
0.0
 10
3.251693600860445
 20
2.211721568163155
 30
0.0
 10
3.256335365957146
 20
2.213383068198024
 30
0.0
 10
3.263268897834187
 20
2.215874019859545
 30
0.0
 10
3.270370130640323
 20
2.21843729791508
 30
0.0
 10
3.275771523491117
 20
2.22039468237591
 30
0.0
 10
3.2774950260227
 20
2.221019254068195
 30
0.0
  0
LWPOLYLINE
  5
8A
330
1F
100
AcDbEntity
  8
0
  6
Continuous
 62
     7
370
    15
100
AcDbPolyline
 90
        6
 70
   128
 43
0.0
 10
3.396397283
 20
2.2642308521
 10
3.4015922623
 20
2.2661208477
 10
3.4259134391
 20
2.2749692202
 10
3.4503160453
 20
2.2838456861
 10
3.475017962
 20
2.2928276953
 10
3.4924804
 20
2.2991738627
  0
SPLINE
  5
8B
330
1F
100
AcDbEntity
  8
0
  6
Continuous
 62
     7
370
    15
100
AcDbSpline
210
0.0
220
0.0
230
1.0
 70
     8
 71
     3
 72
    16
 73
    12
 74
     0
 42
0.000000001
 43
0.00000001
 40
0.0
 40
0.0
 40
0.0
 40
0.0
 40
0.0342021262475672
 40
0.1623390510612021
 40
0.3110126768074208
 40
0.4551896351916074
 40
0.5964408415008138
 40
0.7209465896592849
 40
0.8439900671067492
 40
0.965682394544987
 40
1.0
 40
1.0
 40
1.0
 40
1.0
 10
3.811509813115342
 20
5.573593263389514
 30
0.0
 10
3.809923952517894
 20
5.577255548009838
 30
0.0
 10
3.802396727378683
 20
5.59463843835051
 30
0.0
 10
3.787773997721959
 20
5.628258831344371
 30
0.0
 10
3.767863773150208
 20
5.674019350772484
 30
0.0
 10
3.747098166582374
 20
5.721734667328968
 30
0.0
 10
3.727441342159997
 20
5.766941262981138
 30
0.0
 10
3.708823833852793
 20
5.809807512788521
 30
0.0
 10
3.691148721927295
 20
5.850526844534965
 30
0.0
 10
3.677795203145807
 20
5.881297910775993
 30
0.0
 10
3.6703303793692
 20
5.898486682955504
 30
0.0
 10
3.668688337273508
 20
5.902267708246477
 30
0.0
  0
SPLINE
  5
8C
330
1F
100
AcDbEntity
  8
0
  6
Continuous
 62
     7
370
    15
100
AcDbSpline
210
0.0
220
0.0
230
1.0
 70
     8
 71
     3
 72
    54
 73
    50
 74
     0
 42
0.000000001
 43
0.00000001
 40
0.0
 40
0.0
 40
0.0
 40
0.0
 40
0.0432225051754673
 40
0.1288206162016944
 40
0.2164708209926832
 40
0.306008990927358
 40
0.3956234780192282
 40
0.4823986450943648
 40
0.5662179907223324
 40
0.7043435855992265
 40
0.725682660837403
 40
0.7447638926014468
 40
0.7612272285482385
 40
0.7751353940244954
 40
0.7866892861325034
 40
0.793593408912814
 40
0.7994969768045048
 40
0.8021150120136433
 40
0.8045650071434194
 40
0.8059643767425032
 40
0.8076244830482335
 40
0.811890475456461
 40
0.8174586616499101
 40
0.822559836115051
 40
0.8264081820781212
 40
0.8279799632023851
 40
0.829399644283917
 40
0.8300459449309502
 40
0.8303421076892709
 40
0.8306363134472913
 40
0.8312687304604536
 40
0.8320311540864759
 40
0.834109544164879
 40
0.8370462955032507
 40
0.8423930251346217
 40
0.8494749302812025
 40
0.8571861252583257
 40
0.8677206800562614
 40
0.877185196829756
 40
0.8855460758508883
 40
0.893091321938951
 40
0.9043058131144487
 40
0.9137167941657367
 40
0.9229555259823898
 40
0.9325886791362833
 40
0.9426252627161522
 40
0.9530743132453349
 40
0.9639448725566306
 40
1.0
 40
1.0
 40
1.0
 40
1.0
 10
3.627784508851957
 20
5.996357148962613
 30
0.0
 10
3.625289249973549
 20
6.002090169808195
 30
0.0
 10
3.61785236529983
 20
6.019176899858359
 30
0.0
 10
3.605352103044369
 20
6.047830115914793
 30
0.0
 10
3.590165172037403
 20
6.082572891305603
 30
0.0
 10
3.574764330546671
 20
6.117778964133417
 30
0.0
 10
3.559339409729452
 20
6.153177577864344
 30
0.0
 10
3.543827291183701
 20
6.188967373419555
 30
0.0
 10
3.524907010119492
 20
6.232879411411531
 30
0.0
 10
3.509103652279716
 20
6.268400113068388
 30
0.0
 10
3.496835790596925
 20
6.294143963713151
 30
0.0
 10
3.4924282666483
 20
6.302973900479972
 30
0.0
 10
3.487992316716814
 20
6.311361606025767
 30
0.0
 10
3.4834202724019
 20
6.319224939519603
 30
0.0
 10
3.47894608480971
 20
6.326002157606279
 30
0.0
 10
3.474551213650558
 20
6.331497029101516
 30
0.0
 10
3.471121820745362
 20
6.335352578438785
 30
0.0
 10
3.468007499412567
 20
6.337875044370894
 30
0.0
 10
3.466167904155999
 20
6.339071324323045
 30
0.0
 10
3.463118031803313
 20
6.340517486987189
 30
0.0
 10
3.458325097090813
 20
6.342354411484293
 30
0.0
 10
3.449483863822297
 20
6.344393967117403
 30
0.0
 10
3.437207634217592
 20
6.344113667383681
 30
0.0
 10
3.425528254552273
 20
6.340570514679155
 30
0.0
 10
3.417783459075102
 20
6.336015196720104
 30
0.0
 10
3.413490224413801
 20
6.332535185060213
 30
0.0
 10
3.41157393544313
 20
6.330687674576341
 30
0.0
 10
3.410470913829657
 20
6.329495107773667
 30
0.0
 10
3.409781044805677
 20
6.328740162647266
 30
0.0
 10
3.409090816229013
 20
6.32797350717906
 30
0.0
 10
3.408177166823831
 20
6.326936809790318
 30
0.0
 10
3.406636380343473
 20
6.325125303970109
 30
0.0
 10
3.404786762259189
 20
6.322760318991096
 30
0.0
 10
3.402331588856798
 20
6.319100908576385
 30
0.0
 10
3.399600738245877
 20
6.313817329587008
 30
0.0
 10
3.396755145737557
 20
6.305868100855866
 30
0.0
 10
3.393714830531457
 20
6.293785128162495
 30
0.0
 10
3.390904123037549
 20
6.277909128893739
 30
0.0
 10
3.388461173279139
 20
6.258917835102006
 30
0.0
 10
3.386533878231648
 20
6.24053763018112
 30
0.0
 10
3.384674926659475
 20
6.21910739424863
 30
0.0
 10
3.383033849903892
 20
6.195566347272619
 30
0.0
 10
3.381732463842222
 20
6.170566607030524
 30
0.0
 10
3.380411578585754
 20
6.146899270878691
 30
0.0
 10
3.379084143649794
 20
6.122705624108776
 30
0.0
 10
3.37769331585085
 20
6.097499416715876
 30
0.0
 10
3.376246107981611
 20
6.07125710364191
 30
0.0
 10
3.373595426125966
 20
6.02323921568845
 30
0.0
 10
3.371422116567658
 20
5.983965111526061
 30
0.0
 10
3.369752264541658
 20
5.953789041046744
 30
0.0
  0
SPLINE
  5
8D
330
1F
100
AcDbEntity
  8
0
  6
Continuous
 62
     7
370
    15
100
AcDbSpline
210
0.0
220
0.0
230
1.0
 70
     8
 71
     3
 72
    28
 73
    24
 74
     0
 42
0.000000001
 43
0.00000001
 40
0.0
 40
0.0
 40
0.0
 40
0.0
 40
0.0379150065641903
 40
0.0910911547497175
 40
0.1435005960629188
 40
0.2236394352266683
 40
0.3009224363329778
 40
0.3768650313036941
 40
0.4083043221757567
 40
0.4394304401021193
 40
0.4702165173266919
 40
0.5009140929685478
 40
0.527833836853884
 40
0.5582500848007559
 40
0.5921928776279949
 40
0.6296859606916226
 40
0.6716190974291203
 40
0.7172668830116916
 40
0.7666157801614201
 40
0.8196326816353445
 40
0.8762616712041734
 40
0.9364209453011264
 40
1.0
 40
1.0
 40
1.0
 40
1.0
 10
3.352304598963733
 20
5.639520783111708
 30
0.0
 10
3.350505302872302
 20
5.607199960319058
 30
0.0
 10
3.346182477332824
 20
5.529548883939604
 30
0.0
 10
3.339356402475761
 20
5.407220905302913
 30
0.0
 10
3.330510705183682
 20
5.248899349141197
 30
0.0
 10
3.320499532816394
 20
5.070028522842437
 30
0.0
 10
3.309347639507048
 20
4.871098052263436
 30
0.0
 10
3.30051098711806
 20
4.71368225902019
 30
0.0
 10
3.29387765142703
 20
4.595612931935873
 30
0.0
 10
3.289404914077449
 20
4.516036856920175
 30
0.0
 10
3.284965852452759
 20
4.437093216176697
 30
0.0
 10
3.280726749773864
 20
4.361735338511424
 30
0.0
 10
3.276503877765351
 20
4.28669299604603
 30
0.0
 10
3.272123921819063
 20
4.208884592217977
 30
0.0
 10
3.267235041700065
 20
4.122063457318708
 30
0.0
 10
3.261791675240363
 20
4.025425310637187
 30
0.0
 10
3.255784560532379
 20
3.918809815695107
 30
0.0
 10
3.249206320622904
 20
3.802088392596943
 30
0.0
 10
3.242094053668685
 20
3.675919102293228
 30
0.0
 10
3.234452834019338
 20
3.540389294548021
 30
0.0
 10
3.226291202512387
 20
3.395644470329784
 30
0.0
 10
3.217621481628127
 20
3.241896123323143
 30
0.0
 10
3.211674182751159
 20
3.136419050177588
 30
0.0
 10
3.208618349976552
 20
3.082222968266188
 30
0.0
  0
SPLINE
  5
8E
330
1F
100
AcDbEntity
  8
0
  6
Continuous
 62
     7
370
    15
100
AcDbSpline
210
0.0
220
0.0
230
1.0
 70
     8
 71
     3
 72
    21
 73
    17
 74
     0
 42
0.000000001
 43
0.00000001
 40
0.0
 40
0.0
 40
0.0
 40
0.0
 40
0.0055566045049753
 40
0.0995639687179949
 40
0.1904003890844098
 40
0.2779008128434117
 40
0.361956663341901
 40
0.4410932987686387
 40
0.516805963624369
 40
0.5890774693173401
 40
0.6579032814806477
 40
0.7353546642513362
 40
0.8097346776064371
 40
0.8823143405206169
 40
0.9527648171531542
 40
1.0
 40
1.0
 40
1.0
 40
1.0
 10
3.315337310690205
 20
3.306212077169856
 30
0.0
 10
3.315587026190409
 20
3.310523553316163
 30
0.0
 10
3.320061461293461
 20
3.387777148704311
 30
0.0
 10
3.328529671170247
 20
3.535518585117805
 30
0.0
 10
3.340612714174923
 20
3.746845954765445
 30
0.0
 10
3.35219035705974
 20
3.95045522321758
 30
0.0
 10
3.363214040665758
 20
4.144987848973814
 30
0.0
 10
3.373688824244381
 20
4.330375067019042
 30
0.0
 10
3.383624836300678
 20
4.506618960058622
 30
0.0
 10
3.393092752257777
 20
4.674862634044969
 30
0.0
 10
3.402622365445889
 20
4.844456334391414
 30
0.0
 10
3.412230021846772
 20
5.015686902091055
 30
0.0
 10
3.421984845659614
 20
5.189831752505034
 30
0.0
 10
3.431414918620136
 20
5.358544926583741
 30
0.0
 10
3.439651591321507
 20
5.506193994028986
 30
0.0
 10
3.444726882379623
 20
5.597519107885418
 30
0.0
 10
3.446763938569745
 20
5.634174028039672
 30
0.0
  0
SPLINE
  5
8F
330
1F
100
AcDbEntity
  8
0
  6
Continuous
 62
     7
370
    15
100
AcDbSpline
210
0.0
220
0.0
230
1.0
 70
     8
 71
     3
 72
    11
 73
     7
 74
     0
 42
0.000000001
 43
0.00000001
 40
0.0
 40
0.0
 40
0.0
 40
0.0
 40
0.2588481683616413
 40
0.6673987465132317
 40
0.855478043981158
 40
1.0
 40
1.0
 40
1.0
 40
1.0
 10
3.464175226582491
 20
5.948653274758594
 30
0.0
 10
3.464960209532141
 20
5.962892690263466
 30
0.0
 10
3.466984162956058
 20
5.999606753643491
 30
0.0
 10
3.469569613613399
 20
6.046664476497361
 30
0.0
 10
3.471806215858773
 20
6.087431998904183
 30
0.0
 10
3.472808109174207
 20
6.105726159553073
 30
0.0
 10
3.473243452036419
 20
6.11367534150288
 30
0.0
  0
SPLINE
  5
90
330
1F
100
AcDbEntity
  8
0
  6
Continuous
 62
     7
370
    15
100
AcDbSpline
210
0.0
220
0.0
230
1.0
 70
     8
 71
     3
 72
    23
 73
    19
 74
     0
 42
0.000000001
 43
0.00000001
 40
0.0
 40
0.0
 40
0.0
 40
0.0
 40
0.0062538705104213
 40
0.0244617469261381
 40
0.0456223957303435
 40
0.06912178003792
 40
0.094007785003964
 40
0.1440007996380092
 40
0.195234326491238
 40
0.2425233635194565
 40
0.2920203458716145
 40
0.3441605056674954
 40
0.3970098829996278
 40
0.5239219490114378
 40
0.6508814546747019
 40
0.7762290011022964
 40
0.9183953196507585
 40
1.0
 40
1.0
 40
1.0
 40
1.0
 10
3.413622726512129
 20
6.256357939664019
 30
0.0
 10
3.413320354970995
 20
6.25624169082797
 30
0.0
 10
3.412137641624984
 20
6.255786988479542
 30
0.0
 10
3.414026764093633
 20
6.251835505470178
 30
0.0
 10
3.415601911772226
 20
6.247385215717376
 30
0.0
 10
3.418058979297062
 20
6.242112190122155
 30
0.0
 10
3.421598795435519
 20
6.234524655646236
 30
0.0
 10
3.426473064531877
 20
6.223854889147824
 30
0.0
 10
3.432511346425037
 20
6.209995676123172
 30
0.0
 10
3.43877855797499
 20
6.195128006767571
 30
0.0
 10
3.445282282272188
 20
6.179411988886285
 30
0.0
 10
3.452223834414433
 20
6.16270871419369
 30
0.0
 10
3.462631387006488
 20
6.13810375816208
 30
0.0
 10
3.476458420326833
 20
6.106104095545476
 30
0.0
 10
3.493595234734454
 20
6.067130944283529
 30
0.0
 10
3.511444521391694
 20
6.026763149756538
 30
0.0
 10
3.527235322156969
 20
5.990867489836841
 30
0.0
 10
3.537352578275264
 20
5.967694235454663
 30
0.0
 10
3.541042133470585
 20
5.959243426253182
 30
0.0
  0
SPLINE
  5
91
330
1F
100
AcDbEntity
  8
0
  6
Continuous
 62
     7
370
    15
100
AcDbSpline
210
0.0
220
0.0
230
1.0
 70
     8
 71
     3
 72
    17
 73
    13
 74
     0
 42
0.000000001
 43
0.00000001
 40
0.0
 40
0.0
 40
0.0
 40
0.0
 40
0.1075126114634096
 40
0.2149304984116341
 40
0.3234440231147178
 40
0.435299953897049
 40
0.5505404163381284
 40
0.6691236958560011
 40
0.7553451850652951
 40
0.8432023536803924
 40
0.9325803193838361
 40
1.0
 40
1.0
 40
1.0
 40
1.0
 10
3.589624970625442
 20
5.847466486319179
 30
0.0
 10
3.594319603720915
 20
5.836622895841912
 30
0.0
 10
3.603704733682281
 20
5.81494526868611
 30
0.0
 10
3.617837247787417
 20
5.782272548859689
 30
0.0
 10
3.632163522171878
 20
5.749169582249163
 30
0.0
 10
3.646833588376597
 20
5.715316295543282
 30
0.0
 10
3.661946853445914
 20
5.680497197756211
 30
0.0
 10
3.675942183212658
 20
5.648292582159046
 30
0.0
 10
3.688735086288402
 20
5.618877871531231
 30
0.0
 10
3.700266737216245
 20
5.59237570630789
 30
0.0
 10
3.710916717391999
 20
5.567906519449319
 30
0.0
 10
3.71787097115739
 20
5.551930198416731
 30
0.0
 10
3.72086115359183
 20
5.545060717358049
 30
0.0
  0
SPLINE
  5
92
330
1F
100
AcDbEntity
  8
0
  6
Continuous
 62
     7
370
    15
100
AcDbSpline
210
0.0
220
0.0
230
1.0
 70
     8
 71
     3
 72
    16
 73
    12
 74
     0
 42
0.000000001
 43
0.00000001
 40
0.0
 40
0.0
 40
0.0
 40
0.0
 40
0.0512794083130429
 40
0.1889038734592663
 40
0.3248395996678213
 40
0.4593064932471924
 40
0.5900186476128719
 40
0.7194598022259238
 40
0.8501730931270909
 40
0.9857150216804947
 40
1.0
 40
1.0
 40
1.0
 40
1.0
 10
3.493964653249559
 20
2.400247959017627
 30
0.0
 10
3.491369161558179
 20
2.399306594217956
 30
0.0
 10
3.481807849324622
 20
2.395838780082685
 30
0.0
 10
3.465389729550999
 20
2.389880307654669
 30
0.0
 10
3.444760145290997
 20
2.382357855570102
 30
0.0
 10
3.424467764611589
 20
2.374916787720866
 30
0.0
 10
3.404495537141055
 20
2.367573389579648
 30
0.0
 10
3.384711673932554
 20
2.36029280091747
 30
0.0
 10
3.364671621780187
 20
2.352932189487553
 30
0.0
 10
3.350448329491068
 20
2.347715113705695
 30
0.0
 10
3.342844860189224
 20
2.344947511791309
 30
0.0
 10
3.342119921015101
 20
2.344683639739425
 30
0.0
  0
SPLINE
  5
93
330
1F
100
AcDbEntity
  8
0
  6
Continuous
 62
     7
370
    15
100
AcDbSpline
210
0.0
220
0.0
230
1.0
 70
     8
 71
     3
 72
    16
 73
    12
 74
     0
 42
0.000000001
 43
0.00000001
 40
0.0
 40
0.0
 40
0.0
 40
0.0
 40
0.0537990345999462
 40
0.2674639123486641
 40
0.4713562721866805
 40
0.6651350274360227
 40
0.7384614145608666
 40
0.811055886384209
 40
0.8843271818855881
 40
0.9542870203159453
 40
1.0
 40
1.0
 40
1.0
 40
1.0
 10
3.245372788970643
 20
2.310057376240825
 30
0.0
 10
3.244632047049509
 20
2.309794561910778
 30
0.0
 10
3.240949420888274
 20
2.308487970640913
 30
0.0
 10
3.234309087852803
 20
2.30606785754718
 30
0.0
 10
3.225595119149115
 20
2.302810658467158
 30
0.0
 10
3.218753234968295
 20
2.300157863809626
 30
0.0
 10
3.213740719802371
 20
2.298140031764908
 30
0.0
 10
3.210506088682259
 20
2.296846587898682
 30
0.0
 10
3.207236757656909
 20
2.295615226483703
 30
0.0
 10
3.20517095502686
 20
2.295138609160021
 30
0.0
 10
3.205003792601701
 20
2.29528035088994
 30
0.0
 10
3.204937731337959
 20
2.295336366096674
 30
0.0
  0
SPLINE
  5
94
330
1F
100
AcDbEntity
  8
0
  6
Continuous
 62
     7
370
    15
100
AcDbSpline
210
0.0
220
0.0
230
1.0
 70
     8
 71
     3
 72
    13
 73
     9
 74
     0
 42
0.000000001
 43
0.00000001
 40
0.0
 40
0.0
 40
0.0
 40
0.0
 40
0.0801045544808831
 40
0.3040192585033187
 40
0.5262350669925289
 40
0.7468689705218651
 40
0.9543617931572622
 40
1.0
 40
1.0
 40
1.0
 40
1.0
 10
3.597124406103179
 20
5.879598138161018
 30
0.0
 10
3.597709168420195
 20
5.880715139002093
 30
0.0
 10
3.599928505475022
 20
5.884954470581326
 30
0.0
 10
3.605964305240016
 20
5.89099417881379
 30
0.0
 10
3.614767734251906
 20
5.897148283064533
 30
0.0
 10
3.624694079061873
 20
5.900977991528499
 30
0.0
 10
3.632375246588699
 20
5.902196475821569
 30
0.0
 10
3.636497264324465
 20
5.90225682720604
 30
0.0
 10
3.637240442663455
 20
5.902267708246477
 30
0.0
  0
SPLINE
  5
95
330
1F
100
AcDbEntity
  8
0
  6
Continuous
 62
     7
370
    15
100
AcDbSpline
210
0.0
220
0.0
230
1.0
 70
     8
 71
     3
 72
    19
 73
    15
 74
     0
 42
0.000000001
 43
0.00000001
 40
0.0
 40
0.0
 40
0.0
 40
0.0
 40
0.0566787458856012
 40
0.1453106210491282
 40
0.2339872299942034
 40
0.3226574988409923
 40
0.4113093698724078
 40
0.4999319153009835
 40
0.5885160539312887
 40
0.6770552586756096
 40
0.7655461239075158
 40
0.8539887220646295
 40
0.9423866917136426
 40
1.0
 40
1.0
 40
1.0
 40
1.0
 10
3.637240442663455
 20
5.996755897222855
 30
0.0
 10
3.633239126302906
 20
5.996655433270223
 30
0.0
 10
3.622980717153576
 20
5.996397867949713
 30
0.0
 10
3.606602502603627
 20
5.993821403588429
 30
0.0
 10
3.588527142716977
 20
5.988609479439643
 30
0.0
 10
3.57130534891205
 20
5.981025532682361
 30
0.0
 10
3.55524676622947
 20
5.971251707332208
 30
0.0
 10
3.54063618661627
 20
5.959448306679392
 30
0.0
 10
3.527731695869693
 20
5.945828374561317
 30
0.0
 10
3.516764864994585
 20
5.93063292201455
 30
0.0
 10
3.507915742582373
 20
5.914132701760265
 30
0.0
 10
3.501387797571109
 20
5.896618426441762
 30
0.0
 10
3.497608662700716
 20
5.880518864615488
 30
0.0
 10
3.496620274291335
 20
5.870305927892823
 30
0.0
 10
3.496230274786218
 20
5.866276094853677
 30
0.0
  0
LINE
  5
96
330
1F
100
AcDbEntity
  8
0
  6
Continuous
 62
     7
370
    15
100
AcDbLine
 10
7.1804564068
 20
5.9967558972
 30
0.0
 11
3.6372404427
 21
5.9967558972
 31
0.0
  0
LINE
  5
97
330
1F
100
AcDbEntity
  8
0
  6
Continuous
 62
     7
370
    15
100
AcDbLine
 10
3.6372404427
 20
5.9022677082
 30
0.0
 11
7.1804564068
 21
5.9022677082
 31
0.0
  0
SPLINE
  5
98
330
1F
100
AcDbEntity
  8
0
  6
Continuous
 62
     7
370
    15
100
AcDbSpline
210
0.0
220
0.0
230
1.0
 70
     8
 71
     3
 72
    13
 73
     9
 74
     0
 42
0.000000001
 43
0.00000001
 40
0.0
 40
0.0
 40
0.0
 40
0.0
 40
0.0827119624459284
 40
0.3010963116415222
 40
0.5200769475381986
 40
0.7398156675579987
 40
0.9608406250571168
 40
0.9999999999999999
 40
0.9999999999999999
 40
0.9999999999999999
 40
0.9999999999999999
 10
7.180456406758291
 20
5.902267708246477
 30
0.0
 10
7.1818031351663
 20
5.902232934702754
 30
0.0
 10
7.186705629853196
 20
5.902106348590562
 30
0.0
 10
7.195069665772436
 20
5.900380431049538
 30
0.0
 10
7.204889834635344
 20
5.896054100086681
 30
0.0
 10
7.213250622462232
 20
5.889562247648441
 30
0.0
 10
7.218601346008305
 20
5.883893672557365
 30
0.0
 10
7.220389447347751
 20
5.880220442224481
 30
0.0
 10
7.220658567821416
 20
5.87966759800628
 30
0.0
  0
SPLINE
  5
99
330
1F
100
AcDbEntity
  8
0
  6
Continuous
 62
     7
370
    15
100
AcDbSpline
210
0.0
220
0.0
230
1.0
 70
     8
 71
     3
 72
    19
 73
    15
 74
     0
 42
0.000000001
 43
0.00000001
 40
0.0
 40
0.0
 40
0.0
 40
0.0
 40
0.0569610801587869
 40
0.1452376667256388
 40
0.2335468435464349
 40
0.3218674986443947
 40
0.4102120637173143
 40
0.4985911065341069
 40
0.5870125738981511
 40
0.6754813155674311
 40
0.7639988586864762
 40
0.8525634173430813
 40
0.9411701046155396
 40
1.0
 40
1.0
 40
1.0
 40
1.0
 10
7.32146657463553
 20
5.866276094853676
 30
0.0
 10
7.321082097492672
 20
5.870260361503579
 30
0.0
 10
7.320101769117888
 20
5.880419326014637
 30
0.0
 10
7.316355291454428
 20
5.896460508175972
 30
0.0
 10
7.309859868192143
 20
5.913954808573573
 30
0.0
 10
7.301052210480372
 20
5.930436998784061
 30
0.0
 10
7.290135936247363
 20
5.94561888239776
 30
0.0
 10
7.277288991192422
 20
5.959234272910308
 30
0.0
 10
7.262739016182881
 20
5.971045684781889
 30
0.0
 10
7.24673907969055
 20
5.980841895026496
 30
0.0
 10
7.229568571671043
 20
5.98846278177166
 30
0.0
 10
7.211529348460934
 20
5.99372400062822
 30
0.0
 10
7.195018489625225
 20
5.996377334954401
 30
0.0
 10
7.184609703114424
 20
5.996647926316186
 30
0.0
 10
7.180456406758293
 20
5.996755897222855
 30
0.0
  0
LINE
  5
9A
330
1F
100
AcDbEntity
  8
0
  6
Continuous
 62
     7
370
    15
100
AcDbLine
 10
7.572055281
 20
2.3198521996
 30
0.0
 11
7.3214665746
 21
5.8662760949
 31
0.0
  0
LINE
  5
9B
330
1F
100
AcDbEntity
  8
0
  6
Continuous
 62
     7
370
    15
100
AcDbLine
 10
7.2276872737
 20
5.85290956
 30
0.0
 11
7.4778020914
 21
2.3131923119
 31
0.0
  0
LINE
  5
9C
330
1F
100
AcDbEntity
  8
0
  6
Continuous
 62
     7
370
    15
100
AcDbLine
 10
3.4962302748
 20
5.8662760949
 30
0.0
 11
3.2456415684
 21
2.3198521996
 31
0.0
  0
LINE
  5
9D
330
1F
100
AcDbEntity
  8
0
  6
Continuous
 62
     7
370
    15
100
AcDbLine
 10
3.339894758
 20
2.3131923119
 30
0.0
 11
3.5900098341
 21
5.8529132162
 31
0.0
  0
SPLINE
  5
9E
330
1F
100
AcDbEntity
  8
0
  6
Continuous
 62
     7
370
    15
100
AcDbSpline
210
0.0
220
0.0
230
1.0
 70
     8
 71
     3
 72
     9
 73
     5
 74
     0
 42
0.000000001
 43
0.00000001
 40
0.0
 40
0.0
 40
0.0
 40
0.0
 40
0.432641667401017
 40
1.0
 40
1.0
 40
1.0
 40
1.0
 10
7.477802091371942
 20
2.313192311873765
 30
0.0
 10
7.477882084313304
 20
2.311904648229551
 30
0.0
 10
7.478066978528055
 20
2.308928366143852
 30
0.0
 10
7.477535203079951
 20
2.305986530079138
 30
0.0
 10
7.477233495848397
 20
2.304317454874682
 30
0.0
  0
SPLINE
  5
9F
330
1F
100
AcDbEntity
  8
0
  6
Continuous
 62
     7
370
    15
100
AcDbSpline
210
0.0
220
0.0
230
1.0
 70
     8
 71
     3
 72
    20
 73
    16
 74
     0
 42
0.000000001
 43
0.00000001
 40
0.0
 40
0.0
 40
0.0
 40
0.0
 40
0.0518478622666778
 40
0.1329254017237255
 40
0.2140438621804969
 40
0.295156522922801
 40
0.3762523539455536
 40
0.4573213588663223
 40
0.5383552305046924
 40
0.6193479980943207
 40
0.7002965462796316
 40
0.7812009413241598
 40
0.862064511669665
 40
0.942893653778771
 40
1.0
 40
1.0
 40
1.0
 40
1.0
 10
7.431045113106272
 20
2.169742663109559
 30
0.0
 10
7.435046429432567
 20
2.169843127062576
 30
0.0
 10
7.445304838494077
 20
2.170100692384072
 30
0.0
 10
7.461683053990259
 20
2.172677156734728
 30
0.0
 10
7.479758410005854
 20
2.177889080926992
 30
0.0
 10
7.496980218218579
 20
2.185473027522456
 30
0.0
 10
7.513038747158664
 20
2.195246853476209
 30
0.0
 10
7.527649527237041
 20
2.207050251877537
 30
0.0
 10
7.540553270328484
 20
2.220670192392763
 30
0.0
 10
7.551522889369778
 20
2.23586561362476
 30
0.0
 10
7.560361614650257
 20
2.252365950652499
 30
0.0
 10
7.566928331051377
 20
2.269879790517351
 30
0.0
 10
7.571058483749422
 20
2.288092323904899
 30
0.0
 10
7.572693258119714
 20
2.304881342286668
 30
0.0
 10
7.572242074464533
 20
2.315468878618985
 30
0.0
 10
7.572055280983508
 20
2.319852199566639
 30
0.0
  0
SPLINE
  5
A0
330
1F
100
AcDbEntity
  8
0
  6
Continuous
 62
     7
370
    15
100
AcDbSpline
210
0.0
220
0.0
230
1.0
 70
     8
 71
     3
 72
    20
 73
    16
 74
     0
 42
0.000000001
 43
0.00000001
 40
0.0
 40
0.0
 40
0.0
 40
0.0
 40
0.0521093216875219
 40
0.1328710732386524
 40
0.2136557480089659
 40
0.2944379320911949
 40
0.3752299163923288
 40
0.4560431843522273
 40
0.5368875176628395
 40
0.617770330882313
 40
0.6986962234365663
 40
0.779666760867051
 40
0.8606804724347477
 40
0.9417330358355483
 40
1.0
 40
1.0
 40
1.0
 40
1.0
 10
3.245641568438236
 20
2.319852199566639
 30
0.0
 10
3.2454619750848
 20
2.315853351665405
 30
0.0
 10
3.245004038561259
 20
2.305656880186826
 30
0.0
 10
3.246458539141815
 20
2.289250681866205
 30
0.0
 10
3.250431870086639
 20
2.271024284997484
 30
0.0
 10
3.25683763847096
 20
2.253481180489392
 30
0.0
 10
3.265513902852801
 20
2.236935595443891
 30
0.0
 10
3.276321172446957
 20
2.221675181829255
 30
0.0
 10
3.289067025564539
 20
2.207967315120932
 30
0.0
 10
3.303529954551128
 20
2.196051066788386
 30
0.0
 10
3.319457257841652
 20
2.186139600106498
 30
0.0
 10
3.336571093006341
 20
2.178394426817866
 30
0.0
 10
3.354570774982977
 20
2.173004251330061
 30
0.0
 10
3.371401760629411
 20
2.170169651999854
 30
0.0
 10
3.382154618222886
 20
2.169868579340731
 30
0.0
 10
3.386651736315474
 20
2.169742663109557
 30
0.0
  0
LINE
  5
A1
330
1F
100
AcDbEntity
  8
0
  6
Continuous
 62
     7
370
    15
100
AcDbLine
 10
7.4234552758
 20
2.2642308521
 30
0.0
 11
7.2126997684
 21
2.2642308521
 31
0.0
  0
LINE
  5
A2
330
1F
100
AcDbEntity
  8
0
  6
Continuous
 62
     7
370
    15
100
AcDbLine
 10
3.6049976141
 20
2.2642308521
 30
0.0
 11
3.3942421066
 21
2.2642308521
 31
0.0
  0
LINE
  5
A3
330
1F
100
AcDbEntity
  8
0
  6
Continuous
 62
     7
370
    15
100
AcDbLine
 10
3.3866517363
 20
2.1697426631
 30
0.0
 11
7.4310451131
 21
2.1697426631
 31
0.0
  0
SPLINE
  5
A4
330
1F
100
AcDbEntity
  8
0
  6
Continuous
 62
     7
370
    15
100
AcDbSpline
210
0.0
220
0.0
230
1.0
 70
     8
 71
     3
 72
    28
 73
    24
 74
     0
 42
0.000000001
 43
0.00000001
 40
0.0
 40
0.0
 40
0.0
 40
0.0
 40
0.0625000000000139
 40
0.0625000000000139
 40
0.1250000000000279
 40
0.1250000000000279
 40
0.2500000000000557
 40
0.2500000000000557
 40
0.3125000000000497
 40
0.3125000000000497
 40
0.3750000000000438
 40
0.3750000000000438
 40
0.5000000000000351
 40
0.5000000000000351
 40
0.6250000000000263
 40
0.6250000000000263
 40
0.7500000000000175
 40
0.7500000000000175
 40
0.8125000000000131
 40
0.8125000000000131
 40
0.8750000000000088
 40
0.8750000000000088
 40
1.0
 40
1.0
 40
1.0
 40
1.0
 10
3.805773039009694
 20
5.344209311865696
 30
0.0
 10
3.805893295787486
 20
5.344323058194924
 30
0.0
 10
3.806134681956648
 20
5.344429813318757
 30
0.0
 10
3.806857012361061
 20
5.344629497039175
 30
0.0
 10
3.807340419317782
 20
5.344722741646733
 30
0.0
 10
3.80913722777295
 20
5.34497892823185
 30
0.0
 10
3.810783926441911
 20
5.345117968904721
 30
0.0
 10
3.813906745079617
 20
5.345280352283726
 30
0.0
 10
3.815057227841674
 20
5.345326730882372
 30
0.0
 10
3.817582959563238
 20
5.345403587883578
 30
0.0
 10
3.818959642824761
 20
5.345433944284077
 30
0.0
 10
3.823338554757347
 20
5.345499134957146
 30
0.0
 10
3.826613790748057
 20
5.345509279363643
 30
0.0
 10
3.833871560048853
 20
5.345463368808046
 30
0.0
 10
3.837887047541874
 20
5.345406110525849
 30
0.0
 10
3.846310383381723
 20
5.345228640500748
 30
0.0
 10
3.850750279762823
 20
5.345108610532488
 30
0.0
 10
3.857758902639838
 20
5.344880740494195
 30
0.0
 10
3.86016148670938
 20
5.344796404342236
 30
0.0
 10
3.864984299283925
 20
5.344615054766011
 30
0.0
 10
3.867415745204261
 20
5.344517715318488
 30
0.0
 10
3.874769066883085
 20
5.344206080418335
 30
0.0
 10
3.87974937224213
 20
5.343972352759418
 30
0.0
 10
3.884811284012577
 20
5.343711484767219
 30
0.0
  0
LWPOLYLINE
  5
A5
330
1F
100
AcDbEntity
  8
0
  6
Continuous
 62
     7
370
    15
100
AcDbPolyline
 90
        3
 70
   128
 43
0.0
 10
3.805773039
 20
5.3442093119
 10
3.8175081246
 20
5.4574048991
 10
3.8264049848
 20
5.5432208338
  0
SPLINE
  5
A6
330
1F
100
AcDbEntity
  8
0
  6
Continuous
 62
     7
370
    15
100
AcDbSpline
210
0.0
220
0.0
230
1.0
 70
     8
 71
     3
 72
    28
 73
    24
 74
     0
 42
0.000000001
 43
0.00000001
 40
0.0
 40
0.0
 40
0.0
 40
0.0
 40
0.0625000000000001
 40
0.0625000000000001
 40
0.1250000000000002
 40
0.1250000000000002
 40
0.2499999999999974
 40
0.2499999999999974
 40
0.3124999999999959
 40
0.3124999999999959
 40
0.3749999999999946
 40
0.3749999999999946
 40
0.4999999999999872
 40
0.4999999999999872
 40
0.6249999999999798
 40
0.6249999999999798
 40
0.7499999999999725
 40
0.7499999999999725
 40
0.8124999999999898
 40
0.8124999999999898
 40
0.875000000000007
 40
0.875000000000007
 40
1.0
 40
1.0
 40
1.0
 40
1.0
 10
3.905307017309915
 20
5.541498800917813
 30
0.0
 10
3.902782242568482
 20
5.541628919130472
 30
0.0
 10
3.900267742505102
 20
5.541754671033898
 30
0.0
 10
3.895259057089202
 20
5.541997545338032
 30
0.0
 10
3.892756336785557
 20
5.542115051384429
 30
0.0
 10
3.885341311639722
 20
5.542451630573962
 30
0.0
 10
3.880559281612747
 20
5.542653305181944
 30
0.0
 10
3.873620530252551
 20
5.542922941797062
 30
0.0
 10
3.8713469304133
 20
5.543007304306776
 30
0.0
 10
3.86688033361914
 20
5.54316474679116
 30
0.0
 10
3.864685738542373
 20
5.543237819048955
 30
0.0
 10
3.858364374292014
 20
5.543435379362162
 30
0.0
 10
3.854448419265438
 20
5.543540210963748
 30
0.0
 10
3.847208619147692
 20
5.543696789717695
 30
0.0
 10
3.843871176467445
 20
5.543748183750295
 30
0.0
 10
3.838073853095104
 20
5.543792746786105
 30
0.0
 10
3.835574852191019
 20
5.543787023807395
 30
0.0
 10
3.832436669044335
 20
5.543735852231644
 30
0.0
 10
3.831491342264706
 20
5.543711478544921
 30
0.0
 10
3.829846805223863
 20
5.543649324309203
 30
0.0
 10
3.82914188083746
 20
5.543611509062483
 30
0.0
 10
3.82737242331382
 20
5.543478261880802
 30
0.0
 10
3.826649974770907
 20
5.543363216452815
 30
0.0
 10
3.826404984791142
 20
5.543220833843113
 30
0.0
  0
LWPOLYLINE
  5
A7
330
1F
100
AcDbEntity
  8
0
  6
Continuous
 62
     7
370
    15
100
AcDbPolyline
 90
        3
 70
   128
 43
0.0
 10
3.9053070173
 20
5.5414988009
 10
3.894565481
 20
5.4378418297
 10
3.884811284
 20
5.3437114848
  0
SPLINE
  5
A8
330
1F
100
AcDbEntity
  8
0
  6
Continuous
 62
     7
370
    15
100
AcDbSpline
210
0.0
220
0.0
230
1.0
 70
     8
 71
     3
 72
    22
 73
    18
 74
     0
 42
0.000000001
 43
0.00000001
 40
0.0
 40
0.0
 40
0.0
 40
0.0
 40
0.125
 40
0.125
 40
0.25
 40
0.25
 40
0.375
 40
0.375
 40
0.5
 40
0.5
 40
0.625
 40
0.625
 40
0.75
 40
0.75
 40
0.875
 40
0.875
 40
1.0
 40
1.0
 40
1.0
 40
1.0
 10
3.884811259418276
 20
5.30451550586108
 30
0.0
 10
3.882261627892849
 20
5.304515507299061
 30
0.0
 10
3.879753666727091
 20
5.304492604897244
 30
0.0
 10
3.874817190925185
 20
5.304403133039782
 30
0.0
 10
3.872365994956983
 20
5.304335636260517
 30
0.0
 10
3.867662036372754
 20
5.304158767273246
 30
0.0
 10
3.865426551366983
 20
5.304050583093456
 30
0.0
 10
3.861183878023871
 20
5.303795511040419
 30
0.0
 10
3.859160779288514
 20
5.303646831225533
 30
0.0
 10
3.855499865419915
 20
5.303320876572079
 30
0.0
 10
3.853845724295729
 20
5.3031431157311
 30
0.0
 10
3.850892650875438
 20
5.302757811108679
 30
0.0
 10
3.849598962021376
 20
5.302549857034824
 30
0.0
 10
3.847482238460038
 20
5.302121169069445
 30
0.0
 10
3.846641594347174
 20
5.301898398643224
 30
0.0
 10
3.845410773581392
 20
5.301435423146243
 30
0.0
 10
3.845031287253551
 20
5.301198246197042
 30
0.0
 10
3.844897777214916
 20
5.300959073478858
 30
0.0
  0
ARC
  5
A9
330
1F
100
AcDbEntity
  8
0
  6
Continuous
 62
     7
370
    15
100
AcDbCircle
 10
3.8450522364
 20
5.3404202966
 30
0.0
 40
0.0394615253801258
100
AcDbArc
 50
174.4900873279
 51
269.7757338955
  0
LINE
  5
AA
330
1F
100
AcDbEntity
  8
0
  6
Continuous
 62
     7
370
    15
100
AcDbLine
 10
3.8848112594
 20
5.3045155059
 30
0.0
 11
3.884811284
 21
5.3437114848
 31
0.0
  0
SPLINE
  5
AB
330
1F
100
AcDbEntity
  8
0
  6
Continuous
 62
     7
370
    15
100
AcDbSpline
210
0.0
220
0.0
230
1.0
 70
     8
 71
     3
 72
    28
 73
    24
 74
     0
 42
0.000000001
 43
0.00000001
 40
0.0
 40
0.0
 40
0.0
 40
0.0
 40
0.0625000000000009
 40
0.0625000000000009
 40
0.1250000000000018
 40
0.1250000000000018
 40
0.2500000000000006
 40
0.2500000000000006
 40
0.3124999999999919
 40
0.3124999999999919
 40
0.3749999999999832
 40
0.3749999999999832
 40
0.4999999999999611
 40
0.4999999999999611
 40
0.624999999999939
 40
0.624999999999939
 40
0.749999999999917
 40
0.749999999999917
 40
0.8124999999999268
 40
0.8124999999999268
 40
0.8749999999999366
 40
0.8749999999999366
 40
1.0
 40
1.0
 40
1.0
 40
1.0
 10
6.932886098409212
 20
5.343711484767219
 30
0.0
 10
6.935417003117472
 20
5.343841916125889
 30
0.0
 10
6.937937852977631
 20
5.343966055259959
 30
0.0
 10
6.942959669301413
 20
5.344201890719971
 30
0.0
 10
6.945469936824617
 20
5.344313972653691
 30
0.0
 10
6.952899374718443
 20
5.344628286776936
 30
0.0
 10
6.957691831405424
 20
5.344807882449795
 30
0.0
 10
6.964647174927757
 20
5.345033738366251
 30
0.0
 10
6.966926464914031
 20
5.345101717475954
 30
0.0
 10
6.971404715353058
 20
5.345222687590656
 30
0.0
 10
6.973603360540234
 20
5.345275575554197
 30
0.0
 10
6.97993612418482
 20
5.345408262880542
 30
0.0
 10
6.983859438504549
 20
5.345463761157073
 30
0.0
 10
6.991113054066217
 20
5.345509284462033
 30
0.0
 10
6.994455792812848
 20
5.345498391649027
 30
0.0
 10
7.000260337933896
 20
5.345410556942178
 30
0.0
 10
7.002762055102415
 20
5.34533425556692
 30
0.0
 10
7.005902580861043
 20
5.345170320712993
 30
0.0
 10
7.006848211242608
 20
5.345107073254122
 30
0.0
 10
7.008492521447834
 20
5.344966449042354
 30
0.0
 10
7.009197017435821
 20
5.344888856121306
 30
0.0
 10
7.010964198117365
 20
5.344634647666966
 30
0.0
 10
7.011683830550183
 20
5.344436803868036
 30
0.0
 10
7.011924343412096
 20
5.344209311865696
 30
0.0
  0
LWPOLYLINE
  5
AC
330
1F
100
AcDbEntity
  8
0
  6
Continuous
 62
     7
370
    15
100
AcDbPolyline
 90
        3
 70
   128
 43
0.0
 10
6.9328860984
 20
5.3437114848
 10
6.9231319014
 20
5.4378418297
 10
6.9123903651
 20
5.5414988009
  0
SPLINE
  5
AD
330
1F
100
AcDbEntity
  8
0
  6
Continuous
 62
     7
370
    15
100
AcDbSpline
210
0.0
220
0.0
230
1.0
 70
     8
 71
     3
 72
    28
 73
    24
 74
     0
 42
0.000000001
 43
0.00000001
 40
0.0
 40
0.0
 40
0.0
 40
0.0
 40
0.0624999999999849
 40
0.0624999999999849
 40
0.1249999999999698
 40
0.1249999999999698
 40
0.2499999999999395
 40
0.2499999999999395
 40
0.3124999999999256
 40
0.3124999999999256
 40
0.3749999999999115
 40
0.3749999999999115
 40
0.4999999999999191
 40
0.4999999999999191
 40
0.6249999999999266
 40
0.6249999999999266
 40
0.749999999999934
 40
0.749999999999934
 40
0.8124999999999485
 40
0.8124999999999485
 40
0.8749999999999629
 40
0.8749999999999629
 40
1.0
 40
1.0
 40
1.0
 40
1.0
 10
6.991292397630647
 20
5.543220833843114
 30
0.0
 10
6.991169893236196
 20
5.543292030613687
 30
0.0
 10
6.990926651712138
 20
5.543356640698092
 30
0.0
 10
6.99020127099152
 20
5.543472821574891
 30
0.0
 10
6.989716584266386
 20
5.543524555939589
 30
0.0
 10
6.987917951900459
 20
5.543658522087636
 30
0.0
 10
6.986271422179814
 20
5.543719640389729
 30
0.0
 10
6.983149969393078
 20
5.54377013345927
 30
0.0
 10
6.982000132836891
 20
5.543780053038986
 30
0.0
 10
6.979475954957047
 20
5.543785674413802
 30
0.0
 10
6.978101369978212
 20
5.543781274065087
 30
0.0
 10
6.973729312384489
 20
5.543746963702444
 30
0.0
 10
6.970459410169221
 20
5.543696276282152
 30
0.0
 10
6.963213154634178
 20
5.543539314019514
 30
0.0
 10
6.95920563269933
 20
5.543431716023537
 30
0.0
 10
6.950801066522125
 20
5.543168405977447
 30
0.0
 10
6.946371015837093
 20
5.543012218980174
 30
0.0
 10
6.939377811942184
 20
5.542740274640346
 30
0.0
 10
6.936980946167251
 20
5.542642954727624
 30
0.0
 10
6.932169938615357
 20
5.542439625552441
 30
0.0
 10
6.929744399675275
 20
5.542333197682949
 30
0.0
 10
6.92240881782717
 20
5.541999871945067
 30
0.0
 10
6.917440361193635
 20
5.541759060359304
 30
0.0
 10
6.912390365111879
 20
5.541498800917813
 30
0.0
  0
LWPOLYLINE
  5
AE
330
1F
100
AcDbEntity
  8
0
  6
Continuous
 62
     7
370
    15
100
AcDbPolyline
 90
        3
 70
   128
 43
0.0
 10
6.9912923976
 20
5.5432208338
 10
7.0038513079
 20
5.4220814755
 10
7.0119243434
 20
5.3442093119
  0
SPLINE
  5
AF
330
1F
100
AcDbEntity
  8
0
  6
Continuous
 62
     7
370
    15
100
AcDbSpline
210
0.0
220
0.0
230
1.0
 70
     8
 71
     3
 72
    22
 73
    18
 74
     0
 42
0.000000001
 43
0.00000001
 40
0.0
 40
0.0
 40
0.0
 40
0.0
 40
0.125
 40
0.125
 40
0.25
 40
0.25
 40
0.375
 40
0.375
 40
0.5
 40
0.5
 40
0.625
 40
0.625
 40
0.75
 40
0.75
 40
0.875
 40
0.875
 40
1.0
 40
1.0
 40
1.0
 40
1.0
 10
6.972799605206871
 20
5.300959073478858
 30
0.0
 10
6.972666091989826
 20
5.301198251890914
 30
0.0
 10
6.972290962237719
 20
5.301432314523773
 30
0.0
 10
6.971080107533368
 20
5.301890687592846
 30
0.0
 10
6.970233259790423
 20
5.302117086803142
 30
0.0
 10
6.96810472938393
 20
5.30254898797038
 30
0.0
 10
6.966836459527788
 20
5.302752967491479
 30
0.0
 10
6.96390018093333
 20
5.30313746960636
 30
0.0
 10
6.962212407049238
 20
5.303319371344595
 30
0.0
 10
6.958553608486191
 20
5.303645495043523
 30
0.0
 10
6.956576267509736
 20
5.303791249200471
 30
0.0
 10
6.952323543676406
 20
5.304047889384131
 30
0.0
 10
6.950044810455989
 20
5.304158224860593
 30
0.0
 10
6.945376048815466
 20
5.304334141393078
 30
0.0
 10
6.942963451158137
 20
5.304401259516096
 30
0.0
 10
6.937976393192368
 20
5.304492368726794
 30
0.0
 10
6.935435640488371
 20
5.304515507298996
 30
0.0
 10
6.932886123003514
 20
5.30451550586108
 30
0.0
  0
LINE
  5
B0
330
1F
100
AcDbEntity
  8
0
  6
Continuous
 62
     7
370
    15
100
AcDbLine
 10
6.932886123
 20
5.3045155059
 30
0.0
 11
6.9328860984
 21
5.3437114848
 31
0.0
  0
ARC
  5
B1
330
1F
100
AcDbEntity
  8
0
  6
Continuous
 62
     7
370
    15
100
AcDbCircle
 10
6.972645146
 20
5.3404202966
 30
0.0
 40
0.0394615253801249
100
AcDbArc
 50
270.2242661045
 51
5.5099126721
  0
LINE
  5
B2
330
1F
100
AcDbEntity
  8
0
  6
Continuous
 62
     7
370
    15
100
AcDbLine
 10
6.9821846032
 20
5.5646475628
 30
0.0
 11
6.9815372219
 21
5.5653908994
 31
0.0
  0
LINE
  5
B3
330
1F
100
AcDbEntity
  8
0
  6
Continuous
 62
     7
370
    15
100
AcDbLine
 10
6.9123903651
 20
5.5414988009
 30
0.0
 11
3.9053070173
 21
5.5414988009
 31
0.0
  0
LWPOLYLINE
  5
B4
330
1F
100
AcDbEntity
  8
0
  6
Continuous
 62
     7
370
    15
100
AcDbPolyline
 90
        5
 70
   128
 43
0.0
 10
7.2806252946
 20
2.4338653191
 10
7.2199857975
 20
3.2351485329
 10
7.1733169528
 20
3.8518916915
 10
7.126612214
 20
4.4686321345
 10
7.1266121783
 20
4.4686326054
  0
SPLINE
  5
B5
330
1F
100
AcDbEntity
  8
0
  6
Continuous
 62
     7
370
    15
100
AcDbSpline
210
0.0
220
0.0
230
1.0
 70
     8
 71
     3
 72
    55
 73
    51
 74
     0
 42
0.000000001
 43
0.00000001
 40
0.0
 40
0.0
 40
0.0
 40
0.0
 40
0.031249999999999
 40
0.031249999999999
 40
0.062499999999998
 40
0.062499999999998
 40
0.093749999999997
 40
0.093749999999997
 40
0.124999999999996
 40
0.124999999999996
 40
0.1874999999999941
 40
0.1874999999999941
 40
0.2499999999999922
 40
0.2499999999999922
 40
0.2812499999999907
 40
0.2812499999999907
 40
0.3124999999999892
 40
0.3124999999999892
 40
0.3749999999999869
 40
0.3749999999999869
 40
0.4999999999999821
 40
0.4999999999999821
 40
0.5312499999999816
 40
0.5312499999999816
 40
0.562499999999981
 40
0.562499999999981
 40
0.6249999999999781
 40
0.6249999999999781
 40
0.7499999999999706
 40
0.7499999999999706
 40
0.7656249999999707
 40
0.7656249999999707
 40
0.7812499999999709
 40
0.7812499999999709
 40
0.8124999999999736
 40
0.8124999999999736
 40
0.874999999999979
 40
0.874999999999979
 40
0.9374999999999845
 40
0.9374999999999845
 40
0.9687499999999885
 40
0.9687499999999885
 40
0.9843749999999917
 40
0.9843749999999917
 40
0.9921874999999933
 40
0.9921874999999933
 40
0.9960937499999954
 40
0.9980468749999978
 40
0.9980468749999978
 40
1.0
 40
1.0
 40
1.0
 40
1.0
 10
7.126612178348498
 20
4.468632605447015
 30
0.0
 10
7.125577761845578
 20
4.479333705513148
 30
0.0
 10
7.124533090733755
 20
4.49005227333852
 30
0.0
 10
7.122417224031783
 20
4.511430575981132
 30
0.0
 10
7.121362672601795
 20
4.522106984561895
 30
0.0
 10
7.119265739461478
 20
4.543436120689608
 30
0.0
 10
7.118212088578773
 20
4.55409905255081
 30
0.0
 10
7.116110479995877
 20
4.575276632229134
 30
0.0
 10
7.115062328932187
 20
4.585804366619747
 30
0.0
 10
7.111925744817362
 20
4.617207849372325
 30
0.0
 10
7.109840750852972
 20
4.637903786109292
 30
0.0
 10
7.105679003368545
 20
4.67881750321879
 30
0.0
 10
7.103599343350703
 20
4.699035011506804
 30
0.0
 10
7.100480877550704
 20
4.72899012953931
 30
0.0
 10
7.099442405692433
 20
4.73891333884331
 30
0.0
 10
7.097366265921517
 20
4.758633887461283
 30
0.0
 10
7.096327283240188
 20
4.768443557552667
 30
0.0
 10
7.093218460387041
 20
4.797597613560074
 30
0.0
 10
7.091177982671763
 20
4.816487319071235
 30
0.0
 10
7.085140918740414
 20
4.8715362979446
 30
0.0
 10
7.081236964535428
 20
4.906088182773509
 30
0.0
 10
7.076503725241903
 20
4.946486702603531
 30
0.0
 10
7.075564371962063
 20
4.954425227408105
 30
0.0
 10
7.073701564000664
 20
4.970013428786221
 30
0.0
 10
7.072778260614394
 20
4.977659846219377
 30
0.0
 10
7.070061699874786
 20
4.99991179846586
 30
0.0
 10
7.068311593260183
 20
5.013916472504029
 30
0.0
 10
7.06324180702557
 20
5.053493353706095
 30
0.0
 10
7.060100094175507
 20
5.076638794453376
 30
0.0
 10
7.056850392984252
 20
5.09891464080741
 30
0.0
 10
7.056493347735216
 20
5.101336928202185
 30
0.0
 10
7.055787531220481
 20
5.106074312479471
 30
0.0
 10
7.05543849018593
 20
5.108390369872878
 30
0.0
 10
7.054409443418489
 20
5.115138266677495
 30
0.0
 10
7.053745533118149
 20
5.119383453835176
 30
0.0
 10
7.051818731752367
 20
5.131377885230179
 30
0.0
 10
7.050620984167742
 20
5.138389727632435
 30
0.0
 10
7.048403947635173
 20
5.150476704427483
 30
0.0
 10
7.047387667628779
 20
5.155549812189973
 30
0.0
 10
7.045998891943777
 20
5.161683832488705
 30
0.0
 10
7.045562872801224
 20
5.163485348002493
 30
0.0
 10
7.044957169225469
 20
5.16579129596396
 30
0.0
 10
7.044760873911994
 20
5.166493737435427
 30
0.0
 10
7.044471680073045
 20
5.167452438129531
 30
0.0
 10
7.044376361901748
 20
5.167756173050677
 30
0.0
 10
7.044235139731347
 20
5.168188378768836
 30
0.0
 10
7.044164967798542
 20
5.168398629957024
 30
0.0
 10
7.044095483606837
 20
5.168600147078587
 30
0.0
 10
7.044049317133427
 20
5.168732554211181
 30
0.0
 10
7.044036179659109
 20
5.168798800386165
 30
0.0
 10
7.04400338694563
 20
5.168862056389242
 30
0.0
  0
SPLINE
  5
B6
330
1F
100
AcDbEntity
  8
0
  6
Continuous
 62
     7
370
    15
100
AcDbSpline
210
0.0
220
0.0
230
1.0
 70
     8
 71
     3
 72
    12
 73
     8
 74
     0
 42
0.000000001
 43
0.00000001
 40
0.0
 40
0.0
 40
0.0
 40
0.0
 40
0.25
 40
0.25
 40
0.5
 40
0.5
 40
1.0
 40
1.0
 40
1.0
 40
1.0
 10
7.04400338694563
 20
5.168862056389242
 30
0.0
 10
7.038265508678068
 20
5.180047828793238
 30
0.0
 10
7.032515679530212
 20
5.19094068366015
 30
0.0
 10
7.020865574071717
 20
5.212848154584652
 30
0.0
 10
7.0149762176051
 20
5.223886343882266
 30
0.0
 10
6.997165609884096
 20
5.256959739366891
 30
0.0
 10
6.985090338858234
 20
5.278941192232529
 30
0.0
 10
6.972799605206873
 20
5.300959073478858
 30
0.0
  0
SPLINE
  5
B7
330
1F
100
AcDbEntity
  8
0
  6
Continuous
 62
     7
370
    15
100
AcDbSpline
210
0.0
220
0.0
230
1.0
 70
     8
 71
     3
 72
    74
 73
    70
 74
     0
 42
0.000000001
 43
0.00000001
 40
0.0
 40
0.0
 40
0.0
 40
0.0
 40
0.1249999999999923
 40
0.1249999999999923
 40
0.1874999999999884
 40
0.1874999999999884
 40
0.2499999999999845
 40
0.2499999999999845
 40
0.2812499999999828
 40
0.2812499999999828
 40
0.296874999999982
 40
0.296874999999982
 40
0.3046874999999816
 40
0.3085937499999817
 40
0.3085937499999817
 40
0.3124999999999817
 40
0.3124999999999817
 40
0.328124999999981
 40
0.328124999999981
 40
0.3437499999999801
 40
0.3437499999999801
 40
0.3593749999999793
 40
0.3593749999999793
 40
0.3671874999999787
 40
0.3671874999999787
 40
0.374999999999978
 40
0.374999999999978
 40
0.4062499999999764
 40
0.4062499999999764
 40
0.414062499999976
 40
0.414062499999976
 40
0.417968749999976
 40
0.417968749999976
 40
0.4218749999999759
 40
0.4218749999999759
 40
0.437499999999976
 40
0.437499999999976
 40
0.4687499999999763
 40
0.4687499999999763
 40
0.4726562499999763
 40
0.4726562499999763
 40
0.4765624999999762
 40
0.4765624999999762
 40
0.4843749999999765
 40
0.4843749999999765
 40
0.499999999999977
 40
0.499999999999977
 40
0.5156249999999775
 40
0.5156249999999775
 40
0.5234374999999777
 40
0.5234374999999777
 40
0.5312499999999779
 40
0.5312499999999779
 40
0.5468749999999785
 40
0.5468749999999785
 40
0.5507812499999787
 40
0.5507812499999787
 40
0.5546874999999788
 40
0.5624999999999792
 40
0.5624999999999792
 40
0.6249999999999821
 40
0.6249999999999821
 40
0.687499999999985
 40
0.687499999999985
 40
0.7499999999999879
 40
0.7499999999999879
 40
0.874999999999994
 40
0.874999999999994
 40
1.0
 40
1.0
 40
1.0
 40
1.0
 10
7.011924343412096
 20
5.344209311865696
 30
0.0
 10
7.021876169499353
 20
5.326300786099253
 30
0.0
 10
7.031688439445168
 20
5.308409647278733
 30
0.0
 10
7.046202822378754
 20
5.281542514331437
 30
0.0
 10
7.051008165338891
 20
5.272567727181781
 30
0.0
 10
7.060547521047019
 20
5.254643279697067
 30
0.0
 10
7.065279358101352
 20
5.245719049180734
 30
0.0
 10
7.072322816654419
 20
5.232367084364888
 30
0.0
 10
7.074662405311075
 20
5.227912546849006
 30
0.0
 10
7.078162290567373
 20
5.221189005557918
 30
0.0
 10
7.079327330239324
 20
5.21894090401736
 30
0.0
 10
7.081072805522478
 20
5.215554275271756
 30
0.0
 10
7.081945021471629
 20
5.213857346558116
 30
0.0
 10
7.082816504975061
 20
5.212154275336996
 30
0.0
 10
7.083397336351066
 20
5.211017452934826
 30
0.0
 10
7.083690933275311
 20
5.210409799180756
 30
0.0
 10
7.085189633787484
 20
5.2069355475696
 30
0.0
 10
7.086473163322067
 20
5.202951103536462
 30
0.0
 10
7.08919008718594
 20
5.192753121203608
 30
0.0
 10
7.090624179350925
 20
5.186530148309246
 30
0.0
 10
7.093635551699261
 20
5.171870304002354
 30
0.0
 10
7.095212846157567
 20
5.163433423230897
 30
0.0
 10
7.097685777038377
 20
5.149066721581966
 30
0.0
 10
7.098530416458355
 20
5.14397576535289
 30
0.0
 10
7.100238510766586
 20
5.133316333980655
 30
0.0
 10
7.101102905031905
 20
5.127743860351006
 30
0.0
 10
7.105474191205245
 20
5.09869652741129
 30
0.0
 10
7.10912720638774
 20
5.071694371206951
 30
0.0
 10
7.113874603427597
 20
5.033301224994008
 30
0.0
 10
7.114833259561706
 20
5.025388704381067
 30
0.0
 10
7.116285132338572
 20
5.013164195788795
 30
0.0
 10
7.116771400019719
 20
5.009030168977356
 30
0.0
 10
7.11774858149557
 20
5.000642882098122
 30
0.0
 10
7.118239644370179
 20
4.996388184204111
 30
0.0
 10
7.120692663233275
 20
4.974937379947027
 30
0.0
 10
7.122658755894217
 20
4.957114926802769
 30
0.0
 10
7.128568510050642
 20
4.901754904105632
 30
0.0
 10
7.132523148333057
 20
4.862334045037119
 30
0.0
 10
7.136999327025894
 20
4.815186346393779
 30
0.0
 10
7.13749707014446
 20
4.809908569352682
 30
0.0
 10
7.138493398610414
 20
4.799274188466862
 30
0.0
 10
7.138992604960314
 20
4.793910810290292
 30
0.0
 10
7.140485131148354
 20
4.777771580111837
 30
0.0
 10
7.14147425816508
 20
4.766937546278514
 30
0.0
 10
7.144425166741649
 20
4.734217312991689
 30
0.0
 10
7.146370452761263
 20
4.712112577692142
 30
0.0
 10
7.15022298942658
 20
4.667340011394189
 30
0.0
 10
7.152130277981173
 20
4.644673172437962
 30
0.0
 10
7.154966684591377
 20
4.610253379356942
 30
0.0
 10
7.155908064883006
 20
4.598710139796705
 30
0.0
 10
7.157783239780112
 20
4.575481672913369
 30
0.0
 10
7.158717968628994
 20
4.563784260744662
 30
0.0
 10
7.161505532992551
 20
4.528553616226858
 30
0.0
 10
7.163327560323309
 20
4.505059635452545
 30
0.0
 10
7.165563802553303
 20
4.475683906214388
 30
0.0
 10
7.166008494229889
 20
4.469808247826569
 30
0.0
 10
7.166898551867987
 20
4.458057066027967
 30
0.0
 10
7.168233592493512
 20
4.44043028501248
 30
0.0
 10
7.169568503827858
 20
4.422803480362243
 30
0.0
 10
7.177577516560348
 20
4.317042568030093
 30
0.0
 10
7.184693531185778
 20
4.223032283013698
 30
0.0
 10
7.1989245331146
 20
4.035011475768099
 30
0.0
 10
7.206039518912207
 20
3.941000956839415
 30
0.0
 10
7.220270777149247
 20
3.752980255999992
 30
0.0
 10
7.22738678443183
 20
3.658970023080764
 30
0.0
 10
7.248734378149281
 20
3.376939354060465
 30
0.0
 10
7.262965221139383
 20
3.188918841123798
 30
0.0
 10
7.291424899409076
 20
2.812877567895564
 30
0.0
 10
7.305654000160657
 20
2.624856875331869
 30
0.0
 10
7.319882348601946
 20
2.436836127772031
 30
0.0
  0
LWPOLYLINE
  5
B8
330
1F
100
AcDbEntity
  8
0
  6
Continuous
 62
     7
370
    15
100
AcDbPolyline
 90
        9
 70
   128
 43
0.0
 10
7.2806252946
 20
2.4338653191
 10
7.2882683897
 20
2.4344436945
 10
7.295618959
 20
2.4349999383
 10
7.3023956938
 20
2.4355127631
 10
7.3083392462
 20
2.4359625427
 10
7.3132221546
 20
2.4363320641
 10
7.3168575484
 20
2.4366071854
 10
7.3191062999
 20
2.4367773777
 10
7.3198823486
 20
2.4368361278
  0
LWPOLYLINE
  5
B9
330
1F
100
AcDbEntity
  8
0
  6
Continuous
 62
     7
370
    15
100
AcDbPolyline
 90
        6
 70
   128
 43
0.0
 10
3.884811284
 20
5.3437114848
 10
3.9635514415
 20
5.3437114463
 10
4.2785120714
 20
5.3437114666
 10
5.5383545911
 20
5.3437121042
 10
5.7712658501
 20
5.343711996
 10
6.9328860984
 20
5.3437114848
  0
SPLINE
  5
BA
330
1F
100
AcDbEntity
  8
0
  6
Continuous
 62
     7
370
    15
100
AcDbSpline
210
0.0
220
0.0
230
1.0
 70
     8
 71
     3
 72
    29
 73
    25
 74
     0
 42
0.000000001
 43
0.00000001
 40
0.0
 40
0.0
 40
0.0
 40
0.0
 40
0.1250000000000176
 40
0.1250000000000176
 40
0.187500000000025
 40
0.187500000000025
 40
0.2500000000000324
 40
0.3125000000000398
 40
0.3125000000000398
 40
0.3750000000000472
 40
0.3750000000000472
 40
0.5000000000000544
 40
0.5000000000000544
 40
0.5625000000000505
 40
0.5625000000000505
 40
0.6250000000000466
 40
0.6250000000000466
 40
0.750000000000027
 40
0.750000000000027
 40
0.8125000000000172
 40
0.8125000000000172
 40
0.8750000000000073
 40
0.8750000000000073
 40
1.0
 40
1.0
 40
1.0
 40
1.0
 10
7.319882348601946
 20
2.436836127772031
 30
0.0
 10
7.320471836437888
 20
2.429046330941541
 30
0.0
 10
7.321057305691371
 20
2.421342459074294
 30
0.0
 10
7.321928474057661
 20
2.409914384077349
 30
0.0
 10
7.322217124607826
 20
2.406133863158145
 30
0.0
 10
7.322781520212354
 20
2.398751668687698
 30
0.0
 10
7.323335640075003
 20
2.391513807589906
 30
0.0
 10
7.323869221301523
 20
2.384560630016116
 30
0.0
 10
7.32439226688601
 20
2.37775191737905
 30
0.0
 10
7.324649868119018
 20
2.374402314911476
 30
0.0
 10
7.325394889973286
 20
2.364724550783171
 30
0.0
 10
7.325853505186552
 20
2.358780210195271
 30
0.0
 10
7.326485437041772
 20
2.350607432062494
 30
0.0
 10
7.326686686968057
 20
2.348008012759504
 30
0.0
 10
7.32706980931125
 20
2.343066924541616
 30
0.0
 10
7.327250049243179
 20
2.3407463452628
 30
0.0
 10
7.327751040126942
 20
2.334309430764064
 30
0.0
 10
7.328035374219962
 20
2.330674867795928
 30
0.0
 10
7.328387241225295
 20
2.32621789409206
 30
0.0
 10
7.328492398768438
 20
2.324894398994867
 30
0.0
 10
7.328673314878641
 20
2.322638253652959
 30
0.0
 10
7.328749544481757
 20
2.321699542665563
 30
0.0
 10
7.328936717949639
 20
2.319439049434091
 30
0.0
 10
7.329006546218502
 20
2.318667416268009
 30
0.0
 10
7.329019742496054
 20
2.3186632576691
 30
0.0
  0
SPLINE
  5
BB
330
1F
100
AcDbEntity
  8
0
  6
Continuous
 62
     7
370
    15
100
AcDbSpline
210
0.0
220
0.0
230
1.0
 70
     8
 71
     3
 72
    12
 73
     8
 74
     0
 42
0.000000001
 43
0.00000001
 40
0.0
 40
0.0
 40
0.0
 40
0.0
 40
0.5
 40
0.5
 40
0.75
 40
0.75
 40
1.0
 40
1.0
 40
1.0
 40
1.0
 10
7.09746054170231
 20
5.536859767371887
 30
0.0
 10
7.081449757738101
 20
5.5152012983299
 30
0.0
 10
7.064934962998595
 20
5.504898640395092
 30
0.0
 10
7.038645699493681
 20
5.506495390208014
 30
0.0
 10
7.029630333282677
 20
5.509868219461643
 30
0.0
 10
7.010965823326772
 20
5.522290995966991
 30
0.0
 10
7.001319480238461
 20
5.531338674166689
 30
0.0
 10
6.991292397630647
 20
5.543220833843114
 30
0.0
  0
SPLINE
  5
BC
330
1F
100
AcDbEntity
  8
0
  6
Continuous
 62
     7
370
    15
100
AcDbSpline
210
0.0
220
0.0
230
1.0
 70
     8
 71
     3
 72
    20
 73
    16
 74
     0
 42
0.000000001
 43
0.00000001
 40
0.0
 40
0.0
 40
0.0
 40
0.0
 40
0.2499999999999997
 40
0.2499999999999997
 40
0.3749999999999993
 40
0.3749999999999993
 40
0.4999999999999989
 40
0.4999999999999989
 40
0.6249999999999986
 40
0.6249999999999986
 40
0.6874999999999986
 40
0.6874999999999986
 40
0.7499999999999986
 40
0.7499999999999986
 40
1.0
 40
1.0
 40
1.0
 40
1.0
 10
7.111441380148965
 20
5.418872283861175
 30
0.0
 10
7.110775108369717
 20
5.428342958188969
 30
0.0
 10
7.110070770024481
 20
5.43765368531611
 30
0.0
 10
7.108956226607343
 20
5.451383598621217
 30
0.0
 10
7.10857504492454
 20
5.455916587197279
 30
0.0
 10
7.107811292369576
 20
5.464684555194881
 30
0.0
 10
7.10742643914599
 20
5.468948197539213
 30
0.0
 10
7.10665063222845
 20
5.47723734402037
 30
0.0
 10
7.106259679354775
 20
5.481262866086135
 30
0.0
 10
7.105668412578988
 20
5.487116800542277
 30
0.0
 10
7.105470551803033
 20
5.489036599539594
 30
0.0
 10
7.105078492406568
 20
5.492763210984016
 30
0.0
 10
7.104883624448819
 20
5.494576731043495
 30
0.0
 10
7.103914973446009
 20
5.503399701954869
 30
0.0
 10
7.103157967044335
 20
5.5096856979439
 30
0.0
 10
7.102419672017554
 20
5.515170371968646
 30
0.0
  0
LWPOLYLINE
  5
BD
330
1F
100
AcDbEntity
  8
0
  6
Continuous
 62
     7
370
    15
100
AcDbPolyline
 90
        5
 70
   128
 43
0.0
 10
7.329484691
 20
2.3185165042
 10
7.3239623823
 20
2.3970627628
 10
7.3018722513
 20
2.7112477342
 10
7.2134973974
 20
3.9679866122
 10
7.1114413801
 20
5.4188722839
  0
LWPOLYLINE
  5
BE
330
1F
100
AcDbEntity
  8
0
  6
Continuous
 62
     7
370
    15
100
AcDbPolyline
 90
        3
 70
   128
 43
0.0
 10
7.3290197425
 20
2.3186632577
 10
7.3291526959
 20
2.3186213405
 10
7.329484691
 20
2.3185165042
  0
LWPOLYLINE
  5
BF
330
1F
100
AcDbEntity
  8
0
  6
Continuous
 62
     7
370
    15
100
AcDbPolyline
 90
        6
 70
   128
 43
0.0
 10
6.932886123
 20
5.3045155059
 10
6.8541459655
 20
5.3045154713
 10
6.5391853356
 20
5.3045154895
 10
5.2793428159
 20
5.3045160627
 10
4.6096456315
 20
5.304515673
 10
3.8848112594
 20
5.3045155059
  0
SPLINE
  5
C0
330
1F
100
AcDbEntity
  8
0
  6
Continuous
 62
     7
370
    15
100
AcDbSpline
210
0.0
220
0.0
230
1.0
 70
     8
 71
     3
 72
    12
 73
     8
 74
     0
 42
0.000000001
 43
0.00000001
 40
0.0
 40
0.0
 40
0.0
 40
0.0
 40
0.4999999999999991
 40
0.4999999999999991
 40
0.7499999999999996
 40
0.7499999999999996
 40
1.0
 40
1.0
 40
1.0
 40
1.0
 10
3.844897777214918
 20
5.300959073478857
 30
0.0
 10
3.832607044210763
 20
5.278941193391949
 30
0.0
 10
3.820531783222899
 20
5.256959759064172
 30
0.0
 10
3.802721168670847
 20
5.223886351111541
 30
0.0
 10
3.796831809698475
 20
5.212848157116881
 30
0.0
 10
3.785181702374877
 20
5.190940682691895
 30
0.0
 10
3.7794318750301
 20
5.180047831255067
 30
0.0
 10
3.773693995476158
 20
5.168862056389242
 30
0.0
  0
LINE
  5
C1
330
1F
100
AcDbEntity
  8
0
  6
Continuous
 62
     7
370
    15
100
AcDbLine
 10
7.2413556299
 20
2.4338651112
 30
0.0
 11
7.2806252946
 21
2.4338653191
 31
0.0
  0
SPLINE
  5
C2
330
1F
100
AcDbEntity
  8
0
  6
Continuous
 62
     7
370
    15
100
AcDbSpline
210
0.0
220
0.0
230
1.0
 70
     8
 71
     3
 72
    12
 73
     8
 74
     0
 42
0.000000001
 43
0.00000001
 40
0.0
 40
0.0
 40
0.0
 40
0.0
 40
0.2500000000000002
 40
0.2500000000000002
 40
0.5000000000000003
 40
0.5000000000000003
 40
1.0
 40
1.0
 40
1.0
 40
1.0
 10
7.098536799765942
 20
4.307702446967647
 30
0.0
 10
7.11044521025986
 20
4.151549848546716
 30
0.0
 10
7.122361907793414
 20
3.995397923906654
 30
0.0
 10
7.146163346282793
 20
3.68309158661576
 30
0.0
 10
7.158058051039491
 20
3.526937944322169
 30
0.0
 10
7.193750850155324
 20
3.058477690957936
 30
0.0
 10
7.21755633145877
 20
2.746171636304704
 30
0.0
 10
7.241355629869893
 20
2.433865111224725
 30
0.0
  0
SPLINE
  5
C3
330
1F
100
AcDbEntity
  8
0
  6
Continuous
 62
     7
370
    15
100
AcDbSpline
210
0.0
220
0.0
230
1.0
 70
     8
 71
     3
 72
    18
 73
    14
 74
     0
 42
0.000000001
 43
0.00000001
 40
0.0
 40
0.0
 40
0.0
 40
0.0
 40
0.0078124999999983
 40
0.0078124999999983
 40
0.0156249999999967
 40
0.0312499999999933
 40
0.0624999999999911
 40
0.12499999999999
 40
0.2499999999999912
 40
0.2499999999999912
 40
0.4999999999999928
 40
0.4999999999999928
 40
1.0
 40
1.0
 40
1.0
 40
1.0
 10
7.06406435076791
 20
4.488944797637005
 30
0.0
 10
7.064219287773189
 20
4.4884888167597
 30
0.0
 10
7.064348649375336
 20
4.488023744545255
 30
0.0
 10
7.064631721020994
 20
4.487102376377926
 30
0.0
 10
7.065055101465326
 20
4.485720009618589
 30
0.0
 10
7.066034402158321
 20
4.482492286175257
 30
0.0
 10
7.067958671728448
 20
4.47602803943003
 30
0.0
 10
7.071669997534132
 20
4.463064375722904
 30
0.0
 10
7.074616245443614
 20
4.451892457931258
 30
0.0
 10
7.080195783758654
 20
4.429468405994241
 30
0.0
 10
7.083501109062463
 20
4.414397229959665
 30
0.0
 10
7.092137769908873
 20
4.368977793656401
 30
0.0
 10
7.09619121463659
 20
4.338459634331403
 30
0.0
 10
7.098536799765943
 20
4.307702446967649
 30
0.0
  0
SPLINE
  5
C4
330
1F
100
AcDbEntity
  8
0
  6
Continuous
 62
     7
370
    15
100
AcDbSpline
210
0.0
220
0.0
230
1.0
 70
     8
 71
     3
 72
    43
 73
    39
 74
     0
 42
0.000000001
 43
0.00000001
 40
0.0
 40
0.0
 40
0.0
 40
0.0
 40
0.1249999999999981
 40
0.1249999999999981
 40
0.1874999999999969
 40
0.1874999999999969
 40
0.2187499999999966
 40
0.2187499999999966
 40
0.2499999999999962
 40
0.2499999999999962
 40
0.3749999999999959
 40
0.3749999999999959
 40
0.4374999999999964
 40
0.4374999999999964
 40
0.4687499999999966
 40
0.4687499999999966
 40
0.4999999999999968
 40
0.4999999999999968
 40
0.6249999999999973
 40
0.6249999999999973
 40
0.749999999999998
 40
0.749999999999998
 40
0.7812499999999983
 40
0.7812499999999983
 40
0.8124999999999987
 40
0.8124999999999987
 40
0.8749999999999994
 40
0.8749999999999994
 40
0.9375000000000003
 40
0.9375000000000003
 40
0.9687500000000003
 40
0.9687500000000003
 40
0.9843749999999999
 40
0.9843749999999999
 40
0.9921874999999997
 40
0.9960937499999999
 40
0.9960937499999999
 40
1.0
 40
1.0
 40
1.0
 40
1.0
 10
6.378028167039481
 20
5.035026501703853
 30
0.0
 10
6.417358052245987
 20
5.03019170418034
 30
0.0
 10
6.455750738060426
 20
5.022791530191086
 30
0.0
 10
6.51212215220166
 20
5.007964513334502
 30
0.0
 10
6.530709022592968
 20
5.002397756540671
 30
0.0
 10
6.558300291060477
 20
4.993099710668889
 30
0.0
 10
6.567427484096553
 20
4.989849001957468
 30
0.0
 10
6.585467889522646
 20
4.983077563931549
 30
0.0
 10
6.594393798863424
 20
4.979552635285708
 30
0.0
 10
6.638570407726283
 20
4.961236329828509
 30
0.0
 10
6.672477379966804
 20
4.944386830508989
 30
0.0
 10
6.721422786977998
 20
4.915790298828864
 30
0.0
 10
6.737415624585535
 20
4.905701167465474
 30
0.0
 10
6.760933322514167
 20
4.889708026998847
 30
0.0
 10
6.768694047831336
 20
4.88423383249572
 30
0.0
 10
6.784057906851705
 20
4.872991378309091
 30
0.0
 10
6.791673571085321
 20
4.86721300582318
 30
0.0
 10
6.829196728900345
 20
4.83769299613961
 30
0.0
 10
6.85729781633906
 20
4.812212192666471
 30
0.0
 10
6.909832488980909
 20
4.757449261434599
 30
0.0
 10
6.934269942996821
 20
4.7281717476574
 30
0.0
 10
6.962429255788286
 20
4.688958122340019
 30
0.0
 10
6.96794165472081
 20
4.680984318008591
 30
0.0
 10
6.978723313692734
 20
4.664765390818531
 30
0.0
 10
6.983997389319516
 20
4.656510409412451
 30
0.0
 10
6.999315844154725
 20
4.631536062302121
 30
0.0
 10
7.008900044390744
 20
4.614545125392723
 30
0.0
 10
7.026828459985997
 20
4.579875825733841
 30
0.0
 10
7.035151175336027
 20
4.562187495008735
 30
0.0
 10
7.046723063276325
 20
4.535136918320834
 30
0.0
 10
7.050434393662275
 20
4.526036186368896
 30
0.0
 10
7.05574111989844
 20
4.512237472066952
 30
0.0
 10
7.057466056679004
 20
4.5076130855829
 30
0.0
 10
7.059988723173599
 20
4.500639864026121
 30
0.0
 10
7.061233867312833
 20
4.497144089111898
 30
0.0
 10
7.062454925592354
 20
4.49363464801867
 30
0.0
 10
7.063263632624368
 20
4.491291990931744
 30
0.0
 10
7.06366945223188
 20
4.490106987273141
 30
0.0
 10
7.06406435076791
 20
4.488944797637005
 30
0.0
  0
SPLINE
  5
C5
330
1F
100
AcDbEntity
  8
0
  6
Continuous
 62
     7
370
    15
100
AcDbSpline
210
0.0
220
0.0
230
1.0
 70
     8
 71
     3
 72
    22
 73
    18
 74
     0
 42
0.000000001
 43
0.00000001
 40
0.0
 40
0.0
 40
0.0
 40
0.0
 40
0.1250000000000001
 40
0.1250000000000001
 40
0.2500000000000001
 40
0.2500000000000001
 40
0.3750000000000002
 40
0.3750000000000002
 40
0.5000000000000001
 40
0.5000000000000001
 40
0.6250000000000001
 40
0.6250000000000001
 40
0.7500000000000001
 40
0.7500000000000001
 40
0.875
 40
0.875
 40
1.0
 40
1.0
 40
1.0
 40
1.0
 10
4.439669215382311
 20
5.035026501703849
 30
0.0
 10
4.520159147227072
 20
5.044921077320007
 30
0.0
 10
4.600741832084935
 20
5.053521573535212
 30
0.0
 10
4.762099508703625
 20
5.068203339249155
 30
0.0
 10
4.842874548200931
 20
5.074284470645599
 30
0.0
 10
5.004632891384292
 20
5.083988336065945
 30
0.0
 10
5.08562659189853
 20
5.08760579336598
 30
0.0
 10
5.247805663488914
 20
5.092417355925748
 30
0.0
 10
5.328826484467408
 20
5.093607074206848
 30
0.0
 10
5.490725585285166
 20
5.093588733500985
 30
0.0
 10
5.571603877303472
 20
5.092380708906603
 30
0.0
 10
5.733224529503469
 20
5.087557161199205
 30
0.0
 10
5.813967260640911
 20
5.083941342890372
 30
0.0
 10
5.975328625722826
 20
5.074246901585306
 30
0.0
 10
6.055947872252254
 20
5.068173934893595
 30
0.0
 10
6.217072466625694
 20
5.053508486715137
 30
0.0
 10
6.297577848335465
 20
5.044916207702067
 30
0.0
 10
6.378028167039481
 20
5.03502650170385
 30
0.0
  0
SPLINE
  5
C6
330
1F
100
AcDbEntity
  8
0
  6
Continuous
 62
     7
370
    15
100
AcDbSpline
210
0.0
220
0.0
230
1.0
 70
     8
 71
     3
 72
    42
 73
    38
 74
     0
 42
0.000000001
 43
0.00000001
 40
0.0
 40
0.0
 40
0.0
 40
0.0
 40
0.001953125
 40
0.001953125
 40
0.00390625
 40
0.0078125
 40
0.0156249999999994
 40
0.0156249999999994
 40
0.0312499999999989
 40
0.0312499999999989
 40
0.0624999999999988
 40
0.0624999999999988
 40
0.1249999999999993
 40
0.1249999999999993
 40
0.1875000000000001
 40
0.1875000000000001
 40
0.2187500000000004
 40
0.2187500000000004
 40
0.2500000000000006
 40
0.2500000000000006
 40
0.3750000000000002
 40
0.3750000000000002
 40
0.4999999999999998
 40
0.4999999999999998
 40
0.5624999999999996
 40
0.5624999999999996
 40
0.6249999999999993
 40
0.6249999999999993
 40
0.749999999999999
 40
0.749999999999999
 40
0.8124999999999993
 40
0.8124999999999993
 40
0.8437499999999993
 40
0.8437499999999993
 40
0.8749999999999994
 40
0.8749999999999994
 40
1.0
 40
1.0
 40
1.0
 40
1.0
 10
3.753633031653882
 20
4.488944797637002
 30
0.0
 10
3.753829740378682
 20
4.489523713030303
 30
0.0
 10
3.754032866228746
 20
4.490119180677289
 30
0.0
 10
3.754434680216641
 20
4.491292381364188
 30
0.0
 10
3.755039379547198
 20
4.493050993131649
 30
0.0
 10
3.756464217606843
 20
4.497146087945884
 30
0.0
 10
3.757709373745788
 20
4.500641856628605
 30
0.0
 10
3.760231747201159
 20
4.507614215431312
 30
0.0
 10
3.761956066369248
 20
4.512236893530582
 30
0.0
 10
3.767259463713066
 20
4.526027157338645
 30
0.0
 10
3.77096661023867
 20
4.535117835001592
 30
0.0
 10
3.782519632096735
 20
4.562127493010659
 30
0.0
 10
3.790821115722938
 20
4.579774035047608
 30
0.0
 10
3.808683761030241
 20
4.614334754267762
 30
0.0
 10
3.818223631771619
 20
4.631259181331538
 30
0.0
 10
3.833454011368322
 20
4.65611878655068
 30
0.0
 10
3.838684260637895
 20
4.664317399766385
 30
0.0
 10
3.849452593979429
 20
4.680539698047946
 30
0.0
 10
3.855000518487512
 20
4.688576650758365
 30
0.0
 10
3.883286212311261
 20
4.728009397779264
 30
0.0
 10
3.907788752724705
 20
4.757363300226645
 30
0.0
 10
3.960340524295312
 20
4.812157220672228
 30
0.0
 10
3.988394182929547
 20
4.837591696747843
 30
0.0
 10
4.033232882290337
 20
4.872893152779048
 30
0.0
 10
4.048690689881344
 20
4.884211463388006
 30
0.0
 10
4.080143728736828
 20
4.905613519536185
 30
0.0
 10
4.096173594690947
 20
4.915728945707499
 30
0.0
 10
4.145192430719184
 20
4.944375391331045
 30
0.0
 10
4.179098891587246
 20
4.961219628288264
 30
0.0
 10
4.232009890518316
 20
4.98316492352238
 30
0.0
 10
4.249991005854174
 20
4.989923679248326
 30
0.0
 10
4.277526754056257
 20
4.99921233190437
 30
0.0
 10
4.28681246205688
 20
5.00216998411902
 30
0.0
 10
4.305453658889013
 20
5.007758978817877
 30
0.0
 10
4.314821515076519
 20
5.010394952380585
 30
0.0
 10
4.361903659130387
 20
5.022786383076842
 30
0.0
 10
4.400343344971228
 20
5.030192197716555
 30
0.0
 10
4.439669215382312
 20
5.035026501703845
 30
0.0
  0
SPLINE
  5
C7
330
1F
100
AcDbEntity
  8
0
  6
Continuous
 62
     7
370
    15
100
AcDbSpline
210
0.0
220
0.0
230
1.0
 70
     8
 71
     3
 72
    19
 73
    15
 74
     0
 42
0.000000001
 43
0.00000001
 40
0.0
 40
0.0
 40
0.0
 40
0.0
 40
0.4999999999999963
 40
0.4999999999999963
 40
0.7499999999999948
 40
0.7499999999999948
 40
0.874999999999994
 40
0.874999999999994
 40
0.9374999999999931
 40
0.9687499999999943
 40
0.9843749999999954
 40
0.9921874999999978
 40
0.9921874999999978
 40
1.0
 40
1.0
 40
1.0
 40
1.0
 10
3.719160582655848
 20
4.307702446967647
 30
0.0
 10
3.721507145361831
 20
4.338472453097695
 30
0.0
 10
3.725561071463531
 20
4.36897813607074
 30
0.0
 10
3.7341852509223
 20
4.414342922419579
 30
0.0
 10
3.737488498768246
 20
4.429412806713246
 30
0.0
 10
3.743073880496954
 20
4.451864764349671
 30
0.0
 10
3.745039871822325
 20
4.459320421465417
 30
0.0
 10
3.748145073818156
 20
4.470461435968667
 30
0.0
 10
3.749736734324039
 20
4.476021323862786
 30
0.0
 10
3.751662068785905
 20
4.482489264137837
 30
0.0
 10
3.752641845244337
 20
4.48571858267418
 30
0.0
 10
3.753065416876124
 20
4.487101579241988
 30
0.0
 10
3.753348613092195
 20
4.488023355339374
 30
0.0
 10
3.753478310116665
 20
4.488489450883969
 30
0.0
 10
3.753633031653882
 20
4.488944797637002
 30
0.0
  0
LWPOLYLINE
  5
C8
330
1F
100
AcDbEntity
  8
0
  6
Continuous
 62
     7
370
    15
100
AcDbPolyline
 90
        5
 70
   128
 43
0.0
 10
3.5763417526
 20
2.4338651112
 10
3.5823248324
 20
2.5123776271
 10
3.6062581913
 20
2.8264276116
 10
3.7019921879
 20
4.0826275049
 10
3.7191605827
 20
4.307702447
  0
LINE
  5
C9
330
1F
100
AcDbEntity
  8
0
  6
Continuous
 62
     7
370
    15
100
AcDbLine
 10
3.5370720878
 20
2.4338653191
 30
0.0
 11
3.5763417526
 21
2.4338651112
 31
0.0
  0
SPLINE
  5
CA
330
1F
100
AcDbEntity
  8
0
  6
Continuous
 62
     7
370
    15
100
AcDbSpline
210
0.0
220
0.0
230
1.0
 70
     8
 71
     3
 72
    23
 73
    19
 74
     0
 42
0.000000001
 43
0.00000001
 40
0.0
 40
0.0
 40
0.0
 40
0.0
 40
0.0009765625
 40
0.0009765625
 40
0.001953125
 40
0.0039062499999999
 40
0.0078124999999998
 40
0.0156249999999999
 40
0.0312499999999997
 40
0.0624999999999997
 40
0.0624999999999997
 40
0.1249999999999998
 40
0.1249999999999998
 40
0.2499999999999998
 40
0.2499999999999998
 40
0.4999999999999998
 40
0.4999999999999998
 40
1.0
 40
1.0
 40
1.0
 40
1.0
 10
3.691085204073301
 20
4.468632605447019
 30
0.0
 10
3.691021291079525
 20
4.467971288930907
 30
0.0
 10
3.690984962559853
 20
4.467307885058518
 30
0.0
 10
3.690884720177797
 20
4.465983164735635
 30
0.0
 10
3.690734355737461
 20
4.46399608431723
 30
0.0
 10
3.690383499333923
 20
4.459359563800288
 30
0.0
 10
3.689681762580289
 20
4.45008652458665
 30
0.0
 10
3.688278195091028
 20
4.43154045330314
 30
0.0
 10
3.685470698775941
 20
4.394448338201506
 30
0.0
 10
3.683063704228847
 20
4.362655139944316
 30
0.0
 10
3.678249098721057
 20
4.299068790281672
 30
0.0
 10
3.675038534825964
 20
4.256677953353781
 30
0.0
 10
3.665405651410121
 20
4.129505533211222
 30
0.0
 10
3.658982011443993
 20
4.044724050371625
 30
0.0
 10
3.639719897507076
 20
3.790378934666677
 30
0.0
 10
3.626892133606697
 20
3.620814489800423
 30
0.0
 10
3.588404620985624
 20
3.11212147459131
 30
0.0
 10
3.562734370545347
 20
2.772993698179358
 30
0.0
 10
3.537072087822994
 20
2.433865319149027
 30
0.0
  0
SPLINE
  5
CB
330
1F
100
AcDbEntity
  8
0
  6
Continuous
 62
     7
370
    15
100
AcDbSpline
210
0.0
220
0.0
230
1.0
 70
     8
 71
     3
 72
    52
 73
    48
 74
     0
 42
0.000000001
 43
0.00000001
 40
0.0
 40
0.0
 40
0.0
 40
0.0
 40
0.0019531250000004
 40
0.0019531250000004
 40
0.0039062500000009
 40
0.0078125000000018
 40
0.0156250000000036
 40
0.0156250000000036
 40
0.0312500000000047
 40
0.0312500000000047
 40
0.0625000000000043
 40
0.0625000000000043
 40
0.1250000000000012
 40
0.1250000000000012
 40
0.1874999999999981
 40
0.1874999999999981
 40
0.249999999999995
 40
0.249999999999995
 40
0.2812499999999946
 40
0.2812499999999946
 40
0.3124999999999941
 40
0.3124999999999941
 40
0.3749999999999953
 40
0.3749999999999953
 40
0.4374999999999966
 40
0.4374999999999966
 40
0.4687499999999972
 40
0.4687499999999972
 40
0.4999999999999977
 40
0.4999999999999977
 40
0.6250000000000002
 40
0.6250000000000002
 40
0.6875000000000017
 40
0.6875000000000017
 40
0.7187500000000018
 40
0.7187500000000018
 40
0.7500000000000019
 40
0.7500000000000019
 40
0.8125000000000012
 40
0.8125000000000012
 40
0.8750000000000006
 40
0.8750000000000006
 40
0.9374999999999999
 40
0.9374999999999999
 40
0.96875
 40
0.96875
 40
1.0
 40
1.0
 40
1.0
 40
1.0
 10
3.773693995476158
 20
5.168862056389242
 30
0.0
 10
3.773661139222712
 20
5.168798677819603
 30
0.0
 10
3.77364808508829
 20
5.168732610521251
 30
0.0
 10
3.773601923345276
 20
5.168600217908847
 30
0.0
 10
3.773532431021318
 20
5.168398679341153
 30
0.0
 10
3.773368567965358
 20
5.167907709264464
 30
0.0
 10
3.773225285725661
 20
5.167451117468356
 30
0.0
 10
3.772935199967826
 20
5.166489277886605
 30
0.0
 10
3.772737966203199
 20
5.165783201989735
 30
0.0
 10
3.772127892320695
 20
5.163459221953405
 30
0.0
 10
3.771687416813637
 20
5.161637916716248
 30
0.0
 10
3.770288970552893
 20
5.155452057901583
 30
0.0
 10
3.769267767281493
 20
5.150344696479532
 30
0.0
 10
3.767047358957148
 20
5.138223283763531
 30
0.0
 10
3.765851030382472
 20
5.131210914607244
 30
0.0
 10
3.763294036102606
 20
5.115283483356531
 30
0.0
 10
3.761933973019763
 20
5.106365126205524
 30
0.0
 10
3.75976591629238
 20
5.091504418717539
 30
0.0
 10
3.75902002949739
 20
5.086290194555476
 30
0.0
 10
3.757501493140525
 20
5.075473450967855
 30
0.0
 10
3.756727630268404
 20
5.069862701538785
 30
0.0
 10
3.754363056921093
 20
5.052435826382499
 30
0.0
 10
3.752729900573076
 20
5.040026638986052
 30
0.0
 10
3.749352580026714
 20
5.013652504642182
 30
0.0
 10
3.747608502181129
 20
4.999691012878816
 30
0.0
 10
3.744909651142258
 20
4.977581330546676
 30
0.0
 10
3.743996292092106
 20
4.970017138435419
 30
0.0
 10
3.742141502826902
 20
4.954496545420815
 30
0.0
 10
3.741198184505953
 20
4.946525476313956
 30
0.0
 10
3.736430378446529
 20
4.905831262581046
 30
0.0
 10
3.732514243233263
 20
4.871158193237562
 30
0.0
 10
3.726485336945605
 20
4.816173228595039
 30
0.0
 10
3.724451942166808
 20
4.797345871324574
 30
0.0
 10
3.721360959591456
 20
4.768357205517756
 30
0.0
 10
3.720324120867893
 20
4.758567910164706
 30
0.0
 10
3.718237097471591
 20
4.738743032324114
 30
0.0
 10
3.71719410258028
 20
4.72877580037946
 30
0.0
 10
3.714064749474608
 20
4.698713486154754
 30
0.0
 10
3.711981504825242
 20
4.678457673564301
 30
0.0
 10
3.707819469926022
 20
4.637535728581046
 30
0.0
 10
3.705737719273289
 20
4.61686983200553
 30
0.0
 10
3.701569172676817
 20
4.575131173434454
 30
0.0
 10
3.69947592291051
 20
4.554058066955342
 30
0.0
 10
3.696337633818268
 20
4.522136744871182
 30
0.0
 10
3.695280822258007
 20
4.51143728441097
 30
0.0
 10
3.693163947640774
 20
4.490048796314978
 30
0.0
 10
3.69212162488691
 20
4.47935444022183
 30
0.0
 10
3.691085204073301
 20
4.468632605447019
 30
0.0
  0
LWPOLYLINE
  5
CC
330
1F
100
AcDbEntity
  8
0
  6
Continuous
 62
     7
370
    15
100
AcDbPolyline
 90
        9
 70
   128
 43
0.0
 10
3.5370720878
 20
2.4338653191
 10
3.5294289927
 20
2.4344436945
 10
3.5220784234
 20
2.4349999383
 10
3.5153016886
 20
2.4355127631
 10
3.5093581362
 20
2.4359625427
 10
3.5044752278
 20
2.4363320641
 10
3.5008398341
 20
2.4366071854
 10
3.4985910826
 20
2.4367773777
 10
3.4978150338
 20
2.4368361278
  0
SPLINE
  5
CD
330
1F
100
AcDbEntity
  8
0
  6
Continuous
 62
     7
370
    15
100
AcDbSpline
210
0.0
220
0.0
230
1.0
 70
     8
 71
     3
 72
    24
 73
    20
 74
     0
 42
0.000000001
 43
0.00000001
 40
0.0
 40
0.0
 40
0.0
 40
0.0
 40
0.0277823860359793
 40
0.1389119301843506
 40
0.5834301072356108
 40
0.6222845237925538
 40
0.6611528373524738
 40
0.6999933175472283
 40
0.7388097609786212
 40
0.7682888267833978
 40
0.7978506206591355
 40
0.8273253030249669
 40
0.8556290700941146
 40
0.8840122049107003
 40
0.9123094191795044
 40
0.9414416096541215
 40
0.9706699032355984
 40
0.9997982614722748
 40
1.0
 40
1.0
 40
1.0
 40
1.0
 10
3.497815033819843
 20
2.436836127772026
 30
0.0
 10
3.499795624839516
 20
2.463008012338431
 30
0.0
 10
3.509698579938202
 20
2.593867435174654
 30
0.0
 10
3.55127974291586
 20
3.143476576551285
 30
0.0
 10
3.593787950694452
 20
3.703518623349823
 30
0.0
 10
3.630890250449062
 20
4.195482050290203
 30
0.0
 10
3.639126240656251
 20
4.305275726193477
 30
0.0
 10
3.647437564041573
 20
4.415046912202961
 30
0.0
 10
3.655175781095684
 20
4.515975818567635
 30
0.0
 10
3.662465185618535
 20
4.607664856822356
 30
0.0
 10
3.669277501651617
 20
4.688964148595113
 30
0.0
 10
3.676142552045646
 20
4.766757499882376
 30
0.0
 10
3.683011770495746
 20
4.840087638532856
 30
0.0
 10
3.689815349844664
 20
4.908372839770661
 30
0.0
 10
3.696643497743254
 20
4.972309799822199
 30
0.0
 10
3.703436829398172
 20
5.030993004496502
 30
0.0
 10
3.710025983313328
 20
5.082226706348322
 30
0.0
 10
3.714368432529448
 20
5.114053577273639
 30
0.0
 10
3.716343096212834
 20
5.126031091999081
 30
0.0
 10
3.716356678361828
 20
5.126113475845472
 30
0.0
  0
SPLINE
  5
CE
330
1F
100
AcDbEntity
  8
0
  6
Continuous
 62
     7
370
    15
100
AcDbSpline
210
0.0
220
0.0
230
1.0
 70
     8
 71
     3
 72
    29
 73
    25
 74
     0
 42
0.000000001
 43
0.00000001
 40
0.0
 40
0.0
 40
0.0
 40
0.0
 40
0.1250000000000112
 40
0.1250000000000112
 40
0.1875000000000099
 40
0.1875000000000099
 40
0.2500000000000086
 40
0.3125000000000073
 40
0.3125000000000073
 40
0.375000000000006
 40
0.375000000000006
 40
0.5000000000000073
 40
0.5000000000000073
 40
0.5625000000000057
 40
0.5625000000000057
 40
0.625000000000004
 40
0.625000000000004
 40
0.7500000000000083
 40
0.7500000000000083
 40
0.8125000000000046
 40
0.8125000000000046
 40
0.8750000000000007
 40
0.8750000000000007
 40
1.0
 40
1.0
 40
1.0
 40
1.0
 10
3.48867763992574
 20
2.318663257669209
 30
0.0
 10
3.488690836814898
 20
2.318667416460856
 30
0.0
 10
3.488760752657108
 20
2.319439243612342
 30
0.0
 10
3.488951164336998
 20
2.32174016266063
 30
0.0
 10
3.489028864638259
 20
2.322697656023786
 30
0.0
 10
3.489210072434775
 20
2.324958303804042
 30
0.0
 10
3.489417571918958
 20
2.327570436144814
 30
0.0
 10
3.489677236976087
 20
2.330876315160456
 30
0.0
 10
3.48996350842199
 20
2.334534519628144
 30
0.0
 10
3.490120947681092
 20
2.336552658147039
 30
0.0
 10
3.49062593511906
 20
2.343041435345743
 30
0.0
 10
3.491005530376996
 20
2.347937767576237
 30
0.0
 10
3.49163804712749
 20
2.356118258161907
 30
0.0
 10
3.491859477388649
 20
2.358985415031096
 30
0.0
 10
3.492324186826155
 20
2.365009452258641
 30
0.0
 10
3.492565015194055
 20
2.368134584782371
 30
0.0
 10
3.493305883321467
 20
2.377758736971697
 30
0.0
 10
3.493826719857514
 20
2.384537491861193
 30
0.0
 10
3.494648139275551
 20
2.395254635990729
 30
0.0
 10
3.494930114447052
 20
2.39893790976829
 30
0.0
 10
3.495496487933364
 20
2.406346335616604
 30
0.0
 10
3.495781745210665
 20
2.410082649946644
 30
0.0
 10
3.496643360287297
 20
2.421385798100027
 30
0.0
 10
3.497225514195022
 20
2.429045910866849
 30
0.0
 10
3.497815033819843
 20
2.436836127772025
 30
0.0
  0
LWPOLYLINE
  5
CF
330
1F
100
AcDbEntity
  8
0
  6
Continuous
 62
     7
370
    15
100
AcDbPolyline
 90
        3
 70
   128
 43
0.0
 10
3.4882126914
 20
2.3185165042
 10
3.4882789361
 20
2.3185374417
 10
3.4886776399
 20
2.3186632577
  0
LWPOLYLINE
  5
D0
330
1F
100
AcDbEntity
  8
0
  6
Continuous
 62
     7
370
    15
100
AcDbPolyline
 90
        5
 70
   128
 43
0.0
 10
3.7062560023
 20
5.4188722839
 10
3.7007302532
 20
5.3403262672
 10
3.678628148
 20
5.0261421377
 10
3.5902340128
 20
3.7694046154
 10
3.4882126914
 20
2.3185165042
  0
SPLINE
  5
D1
330
1F
100
AcDbEntity
  8
0
  6
Continuous
 62
     7
370
    15
100
AcDbSpline
210
0.0
220
0.0
230
1.0
 70
     8
 71
     3
 72
    28
 73
    24
 74
     0
 42
0.000000001
 43
0.00000001
 40
0.0
 40
0.0
 40
0.0
 40
0.0
 40
0.125000000000021
 40
0.125000000000021
 40
0.1875000000000248
 40
0.1875000000000248
 40
0.2500000000000286
 40
0.2500000000000286
 40
0.3750000000000231
 40
0.3750000000000231
 40
0.5000000000000178
 40
0.5000000000000178
 40
0.5625000000000202
 40
0.5625000000000202
 40
0.6250000000000226
 40
0.6250000000000226
 40
0.7500000000000198
 40
0.7500000000000198
 40
0.8125000000000155
 40
0.8125000000000155
 40
0.8750000000000114
 40
0.8750000000000114
 40
1.0
 40
1.0
 40
1.0
 40
1.0
 10
3.720236840719479
 20
5.536859767371888
 30
0.0
 10
3.719901444988681
 20
5.53731347145462
 30
0.0
 10
3.719509234878731
 20
5.536937345624232
 30
0.0
 10
3.718839162243958
 20
5.535158173375564
 30
0.0
 10
3.718600704041
 20
5.534355127077946
 30
0.0
 10
3.71810337674162
 20
5.532359931681128
 30
0.0
 10
3.717844754690284
 20
5.531170862843631
 30
0.0
 10
3.717040064008528
 20
5.527044776171379
 30
0.0
 10
3.716465481947089
 20
5.523554707983234
 30
0.0
 10
3.715238081228287
 20
5.515037854985465
 30
0.0
 10
3.714606035833076
 20
5.510154874667614
 30
0.0
 10
3.713632751709171
 20
5.501939009616307
 30
0.0
 10
3.713304033929488
 20
5.499050304802151
 30
0.0
 10
3.712637792850929
 20
5.492965145158499
 30
0.0
 10
3.712300134296837
 20
5.489765687347324
 30
0.0
 10
3.711296814197063
 20
5.479921703863038
 30
0.0
 10
3.71063305604405
 20
5.472965718573708
 30
0.0
 10
3.709644483849661
 20
5.461941660133031
 30
0.0
 10
3.709314270898819
 20
5.458145285702763
 30
0.0
 10
3.708667318662445
 20
5.450478707410364
 30
0.0
 10
3.708350563912755
 20
5.446610086920138
 30
0.0
 10
3.707419712869925
 20
5.434900851133961
 30
0.0
 10
3.706824837294898
 20
5.426957950113443
 30
0.0
 10
3.706256002272824
 20
5.418872283861177
 30
0.0
  0
SPLINE
  5
D2
330
1F
100
AcDbEntity
  8
0
  6
Continuous
 62
     7
370
    15
100
AcDbSpline
210
0.0
220
0.0
230
1.0
 70
     8
 71
     3
 72
    12
 73
     8
 74
     0
 42
0.000000001
 43
0.00000001
 40
0.0
 40
0.0
 40
0.0
 40
0.0
 40
0.2500000000000003
 40
0.2500000000000003
 40
0.5000000000000006
 40
0.5000000000000006
 40
1.0
 40
1.0
 40
1.0
 40
1.0
 10
3.826404984791142
 20
5.543220833843114
 30
0.0
 10
3.816377902183329
 20
5.531338674166688
 30
0.0
 10
3.806731559095017
 20
5.522290995966991
 30
0.0
 10
3.788067049139113
 20
5.509868219461643
 30
0.0
 10
3.779051682928108
 20
5.506495390208014
 30
0.0
 10
3.752762419423194
 20
5.504898640395092
 30
0.0
 10
3.736247624683686
 20
5.515201298329901
 30
0.0
 10
3.720236840719479
 20
5.536859767371889
 30
0.0
  0
LINE
  5
D3
330
1F
100
AcDbEntity
  8
0
  6
Continuous
 62
     7
370
    15
100
AcDbLine
 10
3.8047118885
 20
5.5420566134
 30
0.0
 11
3.805401668
 21
5.5421203351
 31
0.0
  0
LINE
  5
D4
330
1F
100
AcDbEntity
  8
0
  6
Continuous
 62
     7
370
    15
100
AcDbLine
 10
7.0122956846
 20
5.5421204022
 30
0.0
 11
7.0130010274
 21
5.5420552098
 31
0.0
  0
ARC
  5
D5
330
1F
100
AcDbEntity
  8
0
  6
Continuous
 62
     7
370
    15
100
AcDbCircle
 10
3.7595607203
 20
5.5339068002
 30
0.0
 40
0.0394345979871893
100
AcDbArc
 50
90.13940056
 51
175.7055203632
  0
ARC
  5
D6
330
1F
100
AcDbEntity
  8
0
  6
Continuous
 62
     7
370
    15
100
AcDbCircle
 10
7.0581366621
 20
5.5339068002
 30
0.0
 40
0.039434597987189
100
AcDbArc
 50
4.2944796368
 51
89.86059944
  0
SPLINE
  5
D7
330
1F
100
AcDbEntity
  8
0
  6
Continuous
 62
     7
370
    15
100
AcDbSpline
210
0.0
220
0.0
230
1.0
 70
     8
 71
     3
 72
    24
 73
    20
 74
     0
 42
0.000000001
 43
0.00000001
 40
0.0
 40
0.0
 40
0.0
 40
0.0
 40
0.0625000000000001
 40
0.0625000000000001
 40
0.1250000000000002
 40
0.1250000000000002
 40
0.2500000000000002
 40
0.2500000000000002
 40
0.3750000000000001
 40
0.3750000000000001
 40
0.5000000000000001
 40
0.5000000000000001
 40
0.6250000000000001
 40
0.6250000000000001
 40
0.75
 40
0.75
 40
0.875
 40
0.875
 40
1.0
 40
1.0
 40
1.0
 40
1.0
 10
6.375709556090571
 20
5.025717013427304
 30
0.0
 10
6.335612527349305
 20
5.030931012687335
 30
0.0
 10
6.295472886346626
 20
5.035820543264721
 30
0.0
 10
6.215181425825334
 20
5.04494326328714
 30
0.0
 10
6.175021567739044
 20
5.049177569614916
 30
0.0
 10
6.054497464388699
 20
5.060902454298199
 30
0.0
 10
5.974088913811877
 20
5.067415309813352
 30
0.0
 10
5.813136613714846
 20
5.077843067313885
 30
0.0
 10
5.732592616485253
 20
5.081757996024757
 30
0.0
 10
5.57134914737185
 20
5.0869890464398
 30
0.0
 10
5.490649135177456
 20
5.0883051367834
 30
0.0
 10
5.329081984759008
 20
5.088327048263894
 30
0.0
 10
5.24821482436428
 20
5.087032771828698
 30
0.0
 10
5.08632189568341
 20
5.081813994894421
 30
0.0
 10
5.005493835770159
 20
5.077895740935293
 30
0.0
 10
4.844105436962794
 20
5.067455216533638
 30
0.0
 10
4.763533654349941
 20
5.060932539579288
 30
0.0
 10
4.602604379108392
 20
5.045281695609736
 30
0.0
 10
4.522246869083725
 20
5.036153462277979
 30
0.0
 10
4.441987826331219
 20
5.025717013427304
 30
0.0
  0
ARC
  5
D8
330
1F
100
AcDbEntity
  8
0
  6
Continuous
 62
     7
370
    15
100
AcDbCircle
 10
4.4706389206
 20
5.0377963031
 30
0.0
 40
0.0310933182386606
100
AcDbArc
 50
185.1106982223
 51
202.8602682517
  0
ARC
  5
D9
330
1F
100
AcDbEntity
  8
0
  6
Continuous
 62
     7
370
    15
100
AcDbCircle
 10
6.3470584618
 20
5.0377963031
 30
0.0
 40
0.0310933182387102
100
AcDbArc
 50
337.1397317484
 51
354.8893017777
  0
SPLINE
  5
DA
330
1F
100
AcDbEntity
  8
0
  6
Continuous
 62
     7
370
    15
100
AcDbSpline
210
0.0
220
0.0
230
1.0
 70
     8
 71
     3
 72
    50
 73
    46
 74
     0
 42
0.000000001
 43
0.00000001
 40
0.0
 40
0.0
 40
0.0
 40
0.0
 40
0.0624999999999996
 40
0.0624999999999996
 40
0.0937499999999994
 40
0.0937499999999994
 40
0.1249999999999991
 40
0.1249999999999991
 40
0.1562499999999989
 40
0.1562499999999989
 40
0.1718749999999988
 40
0.1718749999999988
 40
0.1874999999999986
 40
0.1874999999999986
 40
0.2499999999999993
 40
0.2499999999999993
 40
0.3125000000000001
 40
0.3125000000000001
 40
0.3281250000000002
 40
0.3281250000000002
 40
0.3437500000000003
 40
0.3437500000000003
 40
0.3750000000000003
 40
0.3750000000000003
 40
0.5000000000000001
 40
0.5000000000000001
 40
0.5625
 40
0.5625
 40
0.5937499999999998
 40
0.5937499999999998
 40
0.6249999999999994
 40
0.6249999999999994
 40
0.6874999999999993
 40
0.6874999999999993
 40
0.7499999999999993
 40
0.7499999999999993
 40
0.8124999999999992
 40
0.8124999999999992
 40
0.8437499999999997
 40
0.8437499999999997
 40
0.8749999999999999
 40
0.8749999999999999
 40
0.9374999999999999
 40
0.9374999999999999
 40
1.0
 40
1.0
 40
1.0
 40
1.0
 10
7.059300081089573
 20
4.304720675341644
 30
0.0
 10
7.057551545938554
 20
4.327665461812081
 30
0.0
 10
7.054803941485911
 20
4.350470474185347
 30
0.0
 10
7.049191463198838
 20
4.384469384527055
 30
0.0
 10
7.047069258812904
 20
4.395779266402903
 30
0.0
 10
7.042335232514858
 20
4.418276650535716
 30
0.0
 10
7.039730641731446
 20
4.429432584491777
 30
0.0
 10
7.034055188694111
 20
4.451562380557396
 30
0.0
 10
7.03098431916138
 20
4.462536239801359
 30
0.0
 10
7.026032825513224
 20
4.478862219728195
 30
0.0
 10
7.024324963479468
 20
4.484281017268782
 30
0.0
 10
7.020797672521102
 20
4.49506513101411
 30
0.0
 10
7.018977925342202
 20
4.500431509478973
 30
0.0
 10
7.009600615997278
 20
4.52713566052779
 30
0.0
 10
7.001209615480946
 20
4.548089853172462
 30
0.0
 10
6.982661367137258
 20
4.589210332911722
 30
0.0
 10
6.972504514020768
 20
4.609375471242917
 30
0.0
 10
6.958686678628271
 20
4.634089766265138
 30
0.0
 10
6.955866917262983
 20
4.639007963945831
 30
0.0
 10
6.950114117607503
 20
4.648794858720565
 30
0.0
 10
6.947177817006681
 20
4.653668544659288
 30
0.0
 10
6.938250979926091
 20
4.66812992710607
 30
0.0
 10
6.932128380728649
 20
4.677583292743581
 30
0.0
 10
6.90067911242911
 20
4.723953923911836
 30
0.0
 10
6.872868712565984
 20
4.758206999806332
 30
0.0
 10
6.827279903594783
 20
4.805744137066332
 30
0.0
 10
6.811433363300552
 20
4.820944413263367
 30
0.0
 10
6.786658258996629
 20
4.842788369369112
 30
0.0
 10
6.778220588129207
 20
4.849919228546968
 30
0.0
 10
6.761051381722641
 20
4.863819472539284
 30
0.0
 10
6.752352992480248
 20
4.870562890496162
 30
0.0
 10
6.725915536834348
 20
4.890190404086236
 30
0.0
 10
6.707835095268064
 20
4.902473310461797
 30
0.0
 10
6.670731583556887
 20
4.92549247805323
 30
0.0
 10
6.651709029778099
 20
4.936228578595792
 30
0.0
 10
6.612650914816159
 20
4.956167022182902
 30
0.0
 10
6.592615822758397
 20
4.965369655924397
 30
0.0
 10
6.56171229393951
 20
4.977997280876179
 30
0.0
 10
6.551256891405057
 20
4.982014314945055
 30
0.0
 10
6.530091137214426
 20
4.989627236307656
 30
0.0
 10
6.519431780854049
 20
4.993205305769641
 30
0.0
 10
6.487214302135638
 20
5.003257059132472
 30
0.0
 10
6.465417459928638
 20
5.009050188170336
 30
0.0
 10
6.421116600107757
 20
5.018790915090101
 30
0.0
 10
6.398612349259322
 20
5.022738858926004
 30
0.0
 10
6.375709556090571
 20
5.025717013427304
 30
0.0
  0
LWPOLYLINE
  5
DB
330
1F
100
AcDbEntity
  8
0
  6
Continuous
 62
     7
370
    15
100
AcDbPolyline
 90
        9
 70
   128
 43
0.0
 10
7.0985367998
 20
4.307702447
 10
7.0908811327
 20
4.307119198
 10
7.0835202272
 20
4.3065587247
 10
7.0767367742
 20
4.3060425517
 10
7.0707912882
 20
4.3055905022
 10
7.0659121019
 20
4.305219937
 10
7.0622865974
 20
4.3049450874
 10
7.0600540101
 20
4.3047765088
 10
7.0593000811
 20
4.3047206753
  0
SPLINE
  5
DC
330
1F
100
AcDbEntity
  8
0
  6
Continuous
 62
     7
370
    15
100
AcDbSpline
210
0.0
220
0.0
230
1.0
 70
     8
 71
     3
 72
    48
 73
    44
 74
     0
 42
0.000000001
 43
0.00000001
 40
0.0
 40
0.0
 40
0.0
 40
0.0
 40
0.0624999999999994
 40
0.0624999999999994
 40
0.1249999999999988
 40
0.1249999999999988
 40
0.1562499999999987
 40
0.1562499999999987
 40
0.1874999999999986
 40
0.1874999999999986
 40
0.2499999999999985
 40
0.2499999999999985
 40
0.3124999999999983
 40
0.3124999999999983
 40
0.3749999999999982
 40
0.3749999999999982
 40
0.4062499999999982
 40
0.4062499999999982
 40
0.4374999999999983
 40
0.4374999999999983
 40
0.4999999999999983
 40
0.4999999999999983
 40
0.6249999999999982
 40
0.6249999999999982
 40
0.6562499999999987
 40
0.6562499999999987
 40
0.687499999999999
 40
0.687499999999999
 40
0.7499999999999993
 40
0.7499999999999993
 40
0.8124999999999998
 40
0.8124999999999998
 40
0.8281250000000001
 40
0.8281250000000001
 40
0.8437500000000003
 40
0.8437500000000003
 40
0.8750000000000003
 40
0.8750000000000003
 40
0.9062500000000002
 40
0.9062500000000002
 40
0.9375000000000001
 40
0.9375000000000001
 40
1.0
 40
1.0
 40
1.0
 40
1.0
 10
4.441987826331219
 20
5.025717013427304
 30
0.0
 10
4.419098343451751
 20
5.022740589723539
 30
0.0
 10
4.396585687981965
 20
5.018792623150081
 30
0.0
 10
4.352233356541583
 20
5.009039319393125
 30
0.0
 10
4.33039344177379
 20
5.003233690087278
 30
0.0
 10
4.298090319620282
 20
4.993148295824037
 30
0.0
 10
4.287377836841314
 20
4.989548203372904
 30
0.0
 10
4.266277140060424
 20
4.981952380973405
 30
0.0
 10
4.255872371821265
 20
4.977952545639571
 30
0.0
 10
4.225064756250253
 20
4.965360129336469
 30
0.0
 10
4.205066899998863
 20
4.956176174693717
 30
0.0
 10
4.166040720025182
 20
4.936256586638818
 30
0.0
 10
4.147012796660577
 20
4.925520714341209
 30
0.0
 10
4.109863188211357
 20
4.902474789627495
 30
0.0
 10
4.091741973999204
 20
4.89016494245437
 30
0.0
 10
4.065220825846119
 20
4.870469068269956
 30
0.0
 10
4.056481628685158
 20
4.863689515299027
 30
0.0
 10
4.039369574680443
 20
4.84982925445276
 30
0.0
 10
4.030978674174378
 20
4.842735853600741
 30
0.0
 10
4.006290048022602
 20
4.820965794729418
 30
0.0
 10
3.990475222423271
 20
4.805800366620374
 30
0.0
 10
3.944918156027494
 20
4.758308247191858
 30
0.0
 10
3.917044087547808
 20
4.724007949850939
 30
0.0
 10
3.88545249451494
 20
4.677407483219861
 30
0.0
 10
3.879287401630261
 20
4.667879377782296
 30
0.0
 10
3.867429386060885
 20
4.64865529206241
 30
0.0
 10
3.861720057564288
 20
4.638936823757058
 30
0.0
 10
3.845243052976477
 20
4.609462897579461
 30
0.0
 10
3.835125084001741
 20
4.589389738565243
 30
0.0
 10
3.816611231549437
 20
4.548381416437729
 30
0.0
 10
3.808215767916185
 20
4.527447750822018
 30
0.0
 10
3.798816626908877
 20
4.500714698058505
 30
0.0
 10
3.796991710683401
 20
4.495339814893565
 30
0.0
 10
3.793452804118131
 20
4.484533061487086
 30
0.0
 10
3.791738422022835
 20
4.479099886989553
 30
0.0
 10
3.78676644024941
 20
4.462723642729151
 30
0.0
 10
3.783681071511419
 20
4.451708162805382
 30
0.0
 10
3.777976874890807
 20
4.429477860649756
 30
0.0
 10
3.775356112930385
 20
4.418249925417417
 30
0.0
 10
3.770622737946384
 20
4.395751703279564
 30
0.0
 10
3.768505063615609
 20
4.384464054858685
 30
0.0
 10
3.76289595250958
 20
4.350485981854128
 30
0.0
 10
3.760146994024065
 20
4.327680651399286
 30
0.0
 10
3.758397301332217
 20
4.304720675341644
 30
0.0
  0
LWPOLYLINE
  5
DD
330
1F
100
AcDbEntity
  8
0
  6
Continuous
 62
     7
370
    15
100
AcDbPolyline
 90
        9
 70
   128
 43
0.0
 10
3.7191605827
 20
4.307702447
 10
3.7268162497
 20
4.307119198
 10
3.7341771553
 20
4.3065587247
 10
3.7409606082
 20
4.3060425517
 10
3.7469060942
 20
4.3055905022
 10
3.7517852805
 20
4.305219937
 10
3.755410785
 20
4.3049450874
 10
3.7576433723
 20
4.3047765088
 10
3.7583973013
 20
4.3047206753
  0
SPLINE
  5
DE
330
1F
100
AcDbEntity
  8
0
  6
Continuous
 62
     7
370
    15
100
AcDbSpline
210
0.0
220
0.0
230
1.0
 70
     8
 71
     3
 72
    29
 73
    25
 74
     0
 42
0.000000001
 43
0.00000001
 40
0.0
 40
0.0
 40
0.0
 40
0.0
 40
0.124999999999997
 40
0.124999999999997
 40
0.1874999999999956
 40
0.1874999999999956
 40
0.2499999999999941
 40
0.3124999999999926
 40
0.3124999999999926
 40
0.3749999999999911
 40
0.3749999999999911
 40
0.499999999999997
 40
0.499999999999997
 40
0.5625
 40
0.5625
 40
0.6250000000000029
 40
0.6250000000000029
 40
0.7500000000000103
 40
0.7500000000000103
 40
0.8125000000000095
 40
0.8125000000000095
 40
0.8750000000000088
 40
0.8750000000000088
 40
1.0
 40
1.0
 40
1.0
 40
1.0
 10
3.567341570423466
 20
2.276385331341321
 30
0.0
 10
3.567341535207704
 20
2.276385331341322
 30
0.0
 10
3.567399888539396
 20
2.277406913337395
 30
0.0
 10
3.567574435586469
 20
2.280461759187081
 30
0.0
 10
3.567647127920902
 20
2.281733910366881
 30
0.0
 10
3.567818847378903
 20
2.284738962029912
 30
0.0
 10
3.568017344715857
 20
2.288212517916492
 30
0.0
 10
3.56826871695284
 20
2.292611169687608
 30
0.0
 10
3.568546952823338
 20
2.297479825750144
 30
0.0
 10
3.56870048303186
 20
2.300166311765422
 30
0.0
 10
3.569194284317776
 20
2.308806804026998
 30
0.0
 10
3.569567027543935
 20
2.31532892450406
 30
0.0
 10
3.570189989982155
 20
2.326229145950914
 30
0.0
 10
3.570408361284192
 20
2.330050054278519
 30
0.0
 10
3.570867238104488
 20
2.338079118435275
 30
0.0
 10
3.571105359624945
 20
2.342245560835189
 30
0.0
 10
3.571838682700612
 20
2.355076551807679
 30
0.0
 10
3.572355275952866
 20
2.364115338599972
 30
0.0
 10
3.57317212014817
 20
2.37840748805377
 30
0.0
 10
3.573452882645438
 20
2.383319913391782
 30
0.0
 10
3.574017611750913
 20
2.393200793648865
 30
0.0
 10
3.574302423147679
 20
2.398184029817172
 30
0.0
 10
3.575164034704354
 20
2.413259272892461
 30
0.0
 10
3.575747941785794
 20
2.423475582254086
 30
0.0
 10
3.576341752551897
 20
2.433865111224721
 30
0.0
  0
LINE
  5
DF
330
1F
100
AcDbEntity
  8
0
  6
Continuous
 62
     7
370
    15
100
AcDbLine
 10
3.5673415704
 20
2.2763853313
 30
0.0
 11
3.5279401326
 21
2.2763853313
 31
0.0
  0
SPLINE
  5
E0
330
1F
100
AcDbEntity
  8
0
  6
Continuous
 62
     7
370
    15
100
AcDbSpline
210
0.0
220
0.0
230
1.0
 70
     8
 71
     3
 72
    29
 73
    25
 74
     0
 42
0.000000001
 43
0.00000001
 40
0.0
 40
0.0
 40
0.0
 40
0.0
 40
0.1249999999999913
 40
0.1249999999999913
 40
0.1874999999999886
 40
0.1874999999999886
 40
0.2499999999999858
 40
0.2499999999999858
 40
0.3749999999999801
 40
0.3749999999999801
 40
0.4374999999999773
 40
0.4374999999999773
 40
0.4999999999999745
 40
0.4999999999999745
 40
0.6249999999999802
 40
0.6249999999999802
 40
0.6874999999999817
 40
0.6874999999999817
 40
0.7499999999999831
 40
0.8124999999999846
 40
0.8124999999999846
 40
0.874999999999986
 40
0.874999999999986
 40
1.0
 40
1.0
 40
1.0
 40
1.0
 10
3.537072087822992
 20
2.433865319149028
 30
0.0
 10
3.53648241249015
 20
2.423475395227419
 30
0.0
 10
3.535900099358717
 20
2.413258857091613
 30
0.0
 10
3.535038248601418
 20
2.398183433281822
 30
0.0
 10
3.534752913286425
 20
2.393200164430684
 30
0.0
 10
3.53418638633389
 20
2.383319264089315
 30
0.0
 10
3.533904340887385
 20
2.378406839123401
 30
0.0
 10
3.533082801988118
 20
2.364114712499836
 30
0.0
 10
3.532561965044148
 20
2.355075998270877
 30
0.0
 10
3.53182120906508
 20
2.342245154674532
 30
0.0
 10
3.531580419522256
 20
2.33807878435112
 30
0.0
 10
3.531115910482213
 20
2.330049795143611
 30
0.0
 10
3.530894608095316
 20
2.326228925677129
 30
0.0
 10
3.530262544700618
 20
2.31532882111207
 30
0.0
 10
3.529883344284398
 20
2.308806778991503
 30
0.0
 10
3.529379049655098
 20
2.300166395363032
 30
0.0
 10
3.529221875709867
 20
2.297479904872298
 30
0.0
 10
3.528936148058934
 20
2.292611244992742
 30
0.0
 10
3.528677040664014
 20
2.288212590928196
 30
0.0
 10
3.528470106748021
 20
2.284739044396182
 30
0.0
 10
3.528289456792435
 20
2.28173399697748
 30
0.0
 10
3.528212032397425
 20
2.280461853471041
 30
0.0
 10
3.52802241861908
 20
2.277406940447794
 30
0.0
 10
3.527952969732181
 20
2.276385331341318
 30
0.0
 10
3.527940132553054
 20
2.276385331341319
 30
0.0
  0
ARC
  5
E1
330
1F
100
AcDbEntity
  8
0
  6
Continuous
 62
     7
370
    15
100
AcDbCircle
 10
3.5673415704
 20
2.3157554101
 30
0.0
 40
0.0393700787401579
100
AcDbArc
 50
270.0
 51
355.642128879
  0
LWPOLYLINE
  5
E2
330
1F
100
AcDbEntity
  8
0
  6
Continuous
 62
     7
370
    15
100
AcDbPolyline
 90
        9
 70
   128
 43
0.0
 10
3.5763417526
 20
2.4338651112
 10
3.5840003403
 20
2.4332814826
 10
3.591364628
 20
2.4327202881
 10
3.5981516055
 20
2.4322030943
 10
3.6041004489
 20
2.4317497771
 10
3.6089825436
 20
2.4313777574
 10
3.6126102705
 20
2.4311013321
 10
3.6148442157
 20
2.4309311241
 10
3.6155985286
 20
2.4308736746
  0
LWPOLYLINE
  5
E3
330
1F
100
AcDbEntity
  8
0
  6
Continuous
 62
     7
370
    15
100
AcDbPolyline
 90
        9
 70
   128
 43
0.0
 10
7.2413556299
 20
2.4338651112
 10
7.2336970421
 20
2.4332814826
 10
7.2263327544
 20
2.4327202881
 10
7.2195457769
 20
2.4322030943
 10
7.2135969335
 20
2.4317497771
 10
7.2087148388
 20
2.4313777574
 10
7.2050871119
 20
2.4311013321
 10
7.2028531667
 20
2.4309311241
 10
7.2020988538
 20
2.4308736746
  0
SPLINE
  5
E4
330
1F
100
AcDbEntity
  8
0
  6
Continuous
 62
     7
370
    15
100
AcDbSpline
210
0.0
220
0.0
230
1.0
 70
     8
 71
     3
 72
    29
 73
    25
 74
     0
 42
0.000000001
 43
0.00000001
 40
0.0
 40
0.0
 40
0.0
 40
0.0
 40
0.1249999999999894
 40
0.1249999999999894
 40
0.1874999999999841
 40
0.1874999999999841
 40
0.2499999999999787
 40
0.2499999999999787
 40
0.3749999999999721
 40
0.3749999999999721
 40
0.4374999999999718
 40
0.4374999999999718
 40
0.4999999999999714
 40
0.4999999999999714
 40
0.6249999999999744
 40
0.6249999999999744
 40
0.6874999999999788
 40
0.6874999999999788
 40
0.7499999999999832
 40
0.8124999999999878
 40
0.8124999999999878
 40
0.8749999999999922
 40
0.8749999999999922
 40
1.0
 40
1.0
 40
1.0
 40
1.0
 10
7.241355629869893
 20
2.433865111224724
 30
0.0
 10
7.241949440635996
 20
2.42347558225409
 30
0.0
 10
7.242533347717435
 20
2.413259272892464
 30
0.0
 10
7.24339495927411
 20
2.398184029817174
 30
0.0
 10
7.243679770670877
 20
2.393200793648866
 30
0.0
 10
7.244244499776351
 20
2.383319913391783
 30
0.0
 10
7.24452526227362
 20
2.378407488053771
 30
0.0
 10
7.245342106468923
 20
2.364115338599972
 30
0.0
 10
7.245858699721178
 20
2.355076551807679
 30
0.0
 10
7.246592022796845
 20
2.342245560835189
 30
0.0
 10
7.246830144317302
 20
2.338079118435275
 30
0.0
 10
7.247289021137596
 20
2.33005005427852
 30
0.0
 10
7.247507392439633
 20
2.326229145950915
 30
0.0
 10
7.248130354877854
 20
2.315328924504059
 30
0.0
 10
7.248503098104013
 20
2.308806804027
 30
0.0
 10
7.24899689938993
 20
2.300166311765423
 30
0.0
 10
7.249150429598453
 20
2.297479825750151
 30
0.0
 10
7.249428665468948
 20
2.292611169687615
 30
0.0
 10
7.249680037705932
 20
2.288212517916477
 30
0.0
 10
7.249878535042887
 20
2.284738962029907
 30
0.0
 10
7.250050254500887
 20
2.281733910366876
 30
0.0
 10
7.250122946835321
 20
2.280461759187086
 30
0.0
 10
7.250297493882393
 20
2.2774069133374
 30
0.0
 10
7.25035584721421
 20
2.27638533134132
 30
0.0
 10
7.250355811998449
 20
2.276385331341319
 30
0.0
  0
ARC
  5
E5
330
1F
100
AcDbEntity
  8
0
  6
Continuous
 62
     7
370
    15
100
AcDbCircle
 10
7.250355812
 20
2.3157554101
 30
0.0
 40
0.0393700787401601
100
AcDbArc
 50
184.357871121
 51
270.0000000002
  0
SPLINE
  5
E6
330
1F
100
AcDbEntity
  8
0
  6
Continuous
 62
     7
370
    15
100
AcDbSpline
210
0.0
220
0.0
230
1.0
 70
     8
 71
     3
 72
    31
 73
    27
 74
     0
 42
0.000000001
 43
0.00000001
 40
0.0
 40
0.0
 40
0.0
 40
0.0
 40
0.1249999999999883
 40
0.1249999999999883
 40
0.1874999999999883
 40
0.1874999999999883
 40
0.2499999999999882
 40
0.2499999999999882
 40
0.374999999999988
 40
0.374999999999988
 40
0.437499999999988
 40
0.437499999999988
 40
0.4999999999999879
 40
0.4999999999999879
 40
0.6249999999999839
 40
0.6249999999999839
 40
0.6562499999999847
 40
0.6562499999999847
 40
0.6874999999999853
 40
0.6874999999999853
 40
0.7499999999999873
 40
0.8124999999999892
 40
0.8124999999999892
 40
0.8749999999999912
 40
0.8749999999999912
 40
1.0
 40
1.0
 40
1.0
 40
1.0
 10
7.289757249868734
 20
2.276385331341328
 30
0.0
 10
7.289744413380498
 20
2.276385331341328
 30
0.0
 10
7.289675050159993
 20
2.277406708348819
 30
0.0
 10
7.289488658082526
 20
2.280407992391409
 30
0.0
 10
7.289412703340354
 20
2.281655112216157
 30
0.0
 10
7.289232356413952
 20
2.284653968689164
 30
0.0
 10
7.289127488428107
 20
2.286413865808654
 30
0.0
 10
7.288776461462128
 20
2.292342678243155
 30
0.0
 10
7.288492670111586
 20
2.297179826524973
 30
0.0
 10
7.28799240780656
 20
2.305750444123235
 30
0.0
 10
7.287812408529968
 20
2.308840609231498
 30
0.0
 10
7.287429660806018
 20
2.31542267854041
 30
0.0
 10
7.287228578036148
 20
2.318885891576274
 30
0.0
 10
7.286597082159686
 20
2.329776012426996
 30
0.0
 10
7.286138671211256
 20
2.337698667289792
 30
0.0
 10
7.285517940112624
 20
2.348450140852056
 30
0.0
 10
7.285391048537805
 20
2.350649112545232
 30
0.0
 10
7.285134867639254
 20
2.355090985730162
 30
0.0
 10
7.285005424113178
 20
2.3573365518695
 30
0.0
 10
7.284613125590063
 20
2.364145791528146
 30
0.0
 10
7.28407949705266
 20
2.373417878702189
 30
0.0
 10
7.283525274808981
 20
2.383070472925326
 30
0.0
 10
7.282960749919806
 20
2.392915974664864
 30
0.0
 10
7.28267201716339
 20
2.397958259425875
 30
0.0
 10
7.281800578077783
 20
2.413200868767551
 30
0.0
 10
7.281214938210839
 20
2.42347595413958
 30
0.0
 10
7.280625294598797
 20
2.433865319149036
 30
0.0
  0
LINE
  5
E7
330
1F
100
AcDbEntity
  8
0
  6
Continuous
 62
     7
370
    15
100
AcDbLine
 10
7.2897572499
 20
2.2763853313
 30
0.0
 11
7.250355812
 21
2.2763853313
 31
0.0
  0
ARC
  5
E8
330
1F
100
AcDbEntity
  8
0
  6
Continuous
 62
     7
370
    15
100
AcDbCircle
 10
3.527940162
 20
2.3157553878
 30
0.0
 40
0.0393700564763402
100
AcDbArc
 50
175.7642802428
 51
269.9999571409
  0
ARC
  5
E9
330
1F
100
AcDbEntity
  8
0
  6
Continuous
 62
     7
370
    15
100
AcDbCircle
 10
7.2897572204
 20
2.3157553878
 30
0.0
 40
0.0393700564763261
100
AcDbArc
 50
270.0000428591
 51
4.2357197572
  0
ARC
  5
EA
330
1F
100
AcDbEntity
  8
0
  6
Continuous
 62
     7
370
    15
100
AcDbCircle
 10
7.2902115759
 20
2.3157553876
 30
0.0
 40
0.039370056308148
100
AcDbArc
 50
270.0000425595
 51
4.021591957
  0
LINE
  5
EB
330
1F
100
AcDbEntity
  8
0
  6
Continuous
 62
     7
370
    15
100
AcDbLine
 10
7.2902116052
 20
2.2763853313
 30
0.0
 11
7.2897572499
 21
2.2763853313
 31
0.0
  0
LINE
  5
EC
330
1F
100
AcDbEntity
  8
0
  6
Continuous
 62
     7
370
    15
100
AcDbLine
 10
3.5279401326
 20
2.2763853313
 30
0.0
 11
3.5274857773
 21
2.2763853313
 31
0.0
  0
ARC
  5
ED
330
1F
100
AcDbEntity
  8
0
  6
Continuous
 62
     7
370
    15
100
AcDbCircle
 10
3.5274858065
 20
2.3157553876
 30
0.0
 40
0.0393700563081494
100
AcDbArc
 50
175.978408043
 51
269.9999574405
  0
LINE
  5
EE
330
1F
100
AcDbEntity
  8
0
  6
Continuous
 62
     7
370
    15
100
AcDbLine
 10
3.7062183837
 20
5.4188749295
 30
0.0
 11
3.7062560023
 21
5.4188722839
 31
0.0
  0
LINE
  5
EF
330
1F
100
AcDbEntity
  8
0
  6
Continuous
 62
     7
370
    15
100
AcDbLine
 10
7.1114789993
 20
5.4188749295
 30
0.0
 11
7.1114413801
 21
5.4188722839
 31
0.0
  0
LINE
  5
F0
330
1F
100
AcDbEntity
  8
0
  6
Continuous
 62
     7
370
    15
100
AcDbLine
 10
3.6947949992
 20
2.4338656463
 30
0.0
 11
3.6827940217
 21
2.1976451739
 31
0.0
  0
ARC
  5
F1
330
1F
100
AcDbEntity
  8
0
  6
Continuous
 62
     7
370
    15
100
AcDbCircle
 10
3.6827940217
 20
2.2763853313
 30
0.0
 40
0.0787401574803148
100
AcDbArc
 50
175.642128879
 51
270.0
  0
LINE
  5
F2
330
1F
100
AcDbEntity
  8
0
  6
Continuous
 62
     7
370
    15
100
AcDbLine
 10
3.6042815104
 20
2.282368472
 30
0.0
 11
3.6162824879
 21
2.439848787
 31
0.0
  0
LINE
  5
F3
330
1F
100
AcDbEntity
  8
0
  6
Continuous
 62
     7
370
    15
100
AcDbLine
 10
3.6947949992
 20
2.4338656463
 30
0.0
 11
3.6162824879
 21
2.439848787
 31
0.0
  0
LINE
  5
F4
330
1F
100
AcDbEntity
  8
0
  6
Continuous
 62
     7
370
    15
100
AcDbLine
 10
7.1349033608
 20
2.1976451739
 30
0.0
 11
7.1229023833
 21
2.4338656463
 31
0.0
  0
LINE
  5
F5
330
1F
100
AcDbEntity
  8
0
  6
Continuous
 62
     7
370
    15
100
AcDbLine
 10
7.1349033608
 20
2.1976451739
 30
0.0
 11
3.6827940217
 21
2.1976451739
 31
0.0
  0
LINE
  5
F6
330
1F
100
AcDbEntity
  8
0
  6
Continuous
 62
     7
370
    15
100
AcDbLine
 10
3.6947949992
 20
2.4338656463
 30
0.0
 11
7.1229023833
 21
2.4338656463
 31
0.0
  0
LINE
  5
F7
330
1F
100
AcDbEntity
  8
0
  6
Continuous
 62
     7
370
    15
100
AcDbLine
 10
3.8369098126
 20
4.2987375346
 30
0.0
 11
3.6947949992
 21
2.4338656463
 31
0.0
  0
ARC
  5
F8
330
1F
100
AcDbEntity
  8
0
  6
Continuous
 62
     7
370
    15
100
AcDbCircle
 10
4.5435224141
 20
4.2448892683
 30
0.0
 40
0.7086614173228348
100
AcDbArc
 50
97.4088590311
 51
175.642128879
  0
ARC
  5
F9
330
1F
100
AcDbEntity
  8
0
  6
Continuous
 62
     7
370
    15
100
AcDbCircle
 10
5.4088486912
 20
-2.409697906
 30
0.0
 40
7.419273909991403
100
AcDbArc
 50
82.5911409689
 51
97.4088590311
  0
ARC
  5
FA
330
1F
100
AcDbEntity
  8
0
  6
Continuous
 62
     7
370
    15
100
AcDbCircle
 10
6.2741749683
 20
4.2448892683
 30
0.0
 40
0.7086614173228355
100
AcDbArc
 50
4.357871121
 51
82.5911409689
  0
LINE
  5
FB
330
1F
100
AcDbEntity
  8
0
  6
Continuous
 62
     7
370
    15
100
AcDbLine
 10
7.1229023833
 20
2.4338656463
 30
0.0
 11
6.9807875698
 21
4.2987375346
 31
0.0
  0
LINE
  5
FC
330
1F
100
AcDbEntity
  8
0
  6
Continuous
 62
     7
370
    15
100
AcDbLine
 10
6.3655560973
 20
4.9476342389
 30
0.0
 11
6.3757095561
 21
5.0257170134
 31
0.0
  0
ARC
  5
FD
330
1F
100
AcDbEntity
  8
0
  6
Continuous
 62
     7
370
    15
100
AcDbCircle
 10
6.2741749683
 20
4.2448892683
 30
0.0
 40
0.7874015748031503
100
AcDbArc
 50
4.357871121
 51
82.5911409689
  0
LINE
  5
FE
330
1F
100
AcDbEntity
  8
0
  6
Continuous
 62
     7
370
    15
100
AcDbLine
 10
6.9807875698
 20
4.2987375346
 30
0.0
 11
7.0593000811
 21
4.3047206753
 31
0.0
  0
LINE
  5
FF
330
1F
100
AcDbEntity
  8
0
  6
Continuous
 62
     7
370
    15
100
AcDbLine
 10
7.0593000811
 20
4.3047206753
 30
0.0
 11
7.2014148945
 21
2.439848787
 31
0.0
  0
LINE
  5
100
330
1F
100
AcDbEntity
  8
0
  6
Continuous
 62
     7
370
    15
100
AcDbLine
 10
7.1229023833
 20
2.4338656463
 30
0.0
 11
7.2014148945
 21
2.439848787
 31
0.0
  0
LINE
  5
101
330
1F
100
AcDbEntity
  8
0
  6
Continuous
 62
     7
370
    15
100
AcDbLine
 10
3.6162824879
 20
2.439848787
 30
0.0
 11
3.7583973013
 21
4.3047206753
 31
0.0
  0
LINE
  5
102
330
1F
100
AcDbEntity
  8
0
  6
Continuous
 62
     7
370
    15
100
AcDbLine
 10
3.8369098126
 20
4.2987375346
 30
0.0
 11
3.7583973013
 21
4.3047206753
 31
0.0
  0
ARC
  5
103
330
1F
100
AcDbEntity
  8
0
  6
Continuous
 62
     7
370
    15
100
AcDbCircle
 10
4.5435224141
 20
4.2448892683
 30
0.0
 40
0.7874015748031507
100
AcDbArc
 50
97.4088590311
 51
175.642128879
  0
LINE
  5
104
330
1F
100
AcDbEntity
  8
0
  6
Continuous
 62
     7
370
    15
100
AcDbLine
 10
4.4521412851
 20
4.9476342389
 30
0.0
 11
4.4419878263
 21
5.0257170134
 31
0.0
  0
LINE
  5
105
330
1F
100
AcDbEntity
  8
0
  6
Continuous
 62
     7
370
    15
100
AcDbLine
 10
7.2014148945
 20
2.439848787
 30
0.0
 11
7.213415872
 21
2.282368472
 31
0.0
  0
ARC
  5
106
330
1F
100
AcDbEntity
  8
0
  6
Continuous
 62
     7
370
    15
100
AcDbCircle
 10
7.1349033608
 20
2.2763853313
 30
0.0
 40
0.0787401574803165
100
AcDbArc
 50
270.0
 51
4.357871121
  0
LINE
  5
107
330
1F
100
AcDbEntity
  8
0
  6
Continuous
 62
     7
370
    15
100
AcDbLine
 10
7.3543593096
 20
5.6332358695
 30
0.0
 11
7.3770527743
 21
5.6345204052
 31
0.0
  0
LINE
  5
108
330
1F
100
AcDbEntity
  8
0
  6
Continuous
 62
     7
370
    15
100
AcDbLine
 10
7.3543593096
 20
5.6332358695
 30
0.0
 11
7.3365598412
 21
5.9476931437
 31
0.0
  0
SPLINE
  5
109
330
1F
100
AcDbEntity
  8
0
  6
Continuous
 62
     7
370
    15
100
AcDbSpline
210
0.0
220
0.0
230
1.0
 70
     8
 71
     3
 72
    10
 73
     6
 74
     0
 42
0.000000001
 43
0.00000001
 40
0.0
 40
0.0
 40
0.0
 40
0.0
 40
0.5000000000000001
 40
0.5000000000000001
 40
1.0
 40
1.0
 40
1.0
 40
1.0
 10
7.362241577762648
 20
5.949105644252333
 30
0.0
 10
7.364332363441062
 20
5.896657790740497
 30
0.0
 10
7.366712732387064
 20
5.844222117401849
 30
0.0
 10
7.371715966398381
 20
5.739363306404774
 30
0.0
 10
7.374348463992949
 20
5.686939989282193
 30
0.0
 10
7.377052774252548
 20
5.63452040523213
 30
0.0
  0
LINE
  5
10A
330
1F
100
AcDbEntity
  8
0
  6
Continuous
 62
     7
370
    15
100
AcDbLine
 10
7.3365598412
 20
5.9476931437
 30
0.0
 11
7.3622392541
 21
5.9491466954
 31
0.0
  0
LINE
  5
10B
330
1F
100
AcDbEntity
  8
0
  6
Continuous
 62
     7
370
    15
100
AcDbLine
 10
7.4801422193
 20
5.6403556568
 30
0.0
 11
7.4623427509
 21
5.9548129311
 31
0.0
  0
LINE
  5
10C
330
1F
100
AcDbEntity
  8
0
  6
Continuous
 62
     7
370
    15
100
AcDbLine
 10
7.4578332579
 20
5.6390928854
 30
0.0
 11
7.4801422193
 21
5.6403556568
 31
0.0
  0
SPLINE
  5
10D
330
1F
100
AcDbEntity
  8
0
  6
Continuous
 62
     7
370
    15
100
AcDbSpline
210
0.0
220
0.0
230
1.0
 70
     8
 71
     3
 72
    10
 73
     6
 74
     0
 42
0.000000001
 43
0.00000001
 40
0.0
 40
0.0
 40
0.0
 40
0.0
 40
0.5
 40
0.5
 40
1.0
 40
1.0
 40
1.0
 40
1.0
 10
7.457833257946715
 20
5.639092885441087
 30
0.0
 10
7.45471729549646
 20
5.691489208287459
 30
0.0
 10
7.45154359036776
 20
5.743882090614449
 30
0.0
 10
7.444984166115373
 20
5.848654447528252
 30
0.0
 10
7.441606066589233
 20
5.90103481389852
 30
0.0
 10
7.437993513979259
 20
5.953399366512042
 30
0.0
  0
LINE
  5
10E
330
1F
100
AcDbEntity
  8
0
  6
Continuous
 62
     7
370
    15
100
AcDbLine
 10
7.4379915219
 20
5.9534345596
 30
0.0
 11
7.4623427509
 21
5.9548129311
 31
0.0
  0
LINE
  5
10F
330
1F
100
AcDbEntity
  8
0
  6
Continuous
 62
     7
370
    15
100
AcDbLine
 10
7.315775371
 20
5.8968946018
 30
0.0
 11
7.3129755457
 21
5.9463581836
 31
0.0
  0
LINE
  5
110
330
1F
100
AcDbEntity
  8
0
  6
Continuous
 62
     7
370
    15
100
AcDbLine
 10
7.337998528
 20
5.6323097875
 30
0.0
 11
7.3543593096
 21
5.6332358695
 31
0.0
  0
LINE
  5
111
330
1F
100
AcDbEntity
  8
0
  6
Continuous
 62
     7
370
    15
100
AcDbLine
 10
7.3129755457
 20
5.9463581836
 30
0.0
 11
7.3365598412
 21
5.9476931437
 31
0.0
  0
LINE
  5
112
330
1F
100
AcDbEntity
  8
0
  6
Continuous
 62
     7
370
    15
100
AcDbLine
 10
7.5037265148
 20
5.641690617
 30
0.0
 11
7.4859270465
 21
5.9561478912
 31
0.0
  0
LINE
  5
113
330
1F
100
AcDbEntity
  8
0
  6
Continuous
 62
     7
370
    15
100
AcDbLine
 10
7.4801422193
 20
5.6403556568
 30
0.0
 11
7.5037265148
 21
5.641690617
 31
0.0
  0
LINE
  5
114
330
1F
100
AcDbEntity
  8
0
  6
Continuous
 62
     7
370
    15
100
AcDbLine
 10
7.4623427509
 20
5.9548129311
 30
0.0
 11
7.4859270465
 21
5.9561478912
 31
0.0
  0
LINE
  5
115
330
1F
100
AcDbEntity
  8
0
  6
Continuous
 62
     7
370
    15
100
AcDbLine
 10
7.6337856738
 20
2.4944045429
 30
0.0
 11
7.6159862055
 21
2.8088618172
 31
0.0
  0
LINE
  5
116
330
1F
100
AcDbEntity
  8
0
  6
Continuous
 62
     7
370
    15
100
AcDbLine
 10
7.5500152251
 20
2.6317712088
 30
0.0
 11
7.5402339376
 21
2.8045739529
 31
0.0
  0
LINE
  5
117
330
1F
100
AcDbEntity
  8
0
  6
Continuous
 62
     7
370
    15
100
AcDbLine
 10
7.5378147372
 20
2.8044370171
 30
0.0
 11
7.5402339376
 21
2.8045739529
 31
0.0
  0
LINE
  5
118
330
1F
100
AcDbEntity
  8
0
  6
Continuous
 62
     7
370
    15
100
AcDbLine
 10
7.6581369028
 20
2.4957829144
 30
0.0
 11
7.6403374345
 21
2.8102401886
 31
0.0
  0
LINE
  5
119
330
1F
100
AcDbEntity
  8
0
  6
Continuous
 62
     7
370
    15
100
AcDbLine
 10
7.6159862055
 20
2.8088618172
 30
0.0
 11
7.6403374345
 21
2.8102401886
 31
0.0
  0
LINE
  5
11A
330
1F
100
AcDbEntity
  8
0
  6
Continuous
 62
     7
370
    15
100
AcDbLine
 10
7.6337856738
 20
2.4944045429
 30
0.0
 11
7.6581369028
 21
2.4957829144
 31
0.0
  0
LINE
  5
11B
330
1F
100
AcDbEntity
  8
0
  6
Continuous
 62
     7
370
    15
100
AcDbLine
 10
7.6817211984
 20
2.4971178745
 30
0.0
 11
7.66392173
 21
2.8115751487
 31
0.0
  0
LINE
  5
11C
330
1F
100
AcDbEntity
  8
0
  6
Continuous
 62
     7
370
    15
100
AcDbLine
 10
7.6403374345
 20
2.8102401886
 30
0.0
 11
7.66392173
 21
2.8115751487
 31
0.0
  0
LINE
  5
11D
330
1F
100
AcDbEntity
  8
0
  6
Continuous
 62
     7
370
    15
100
AcDbLine
 10
7.6581369028
 20
2.4957829144
 30
0.0
 11
7.6817211984
 21
2.4971178745
 31
0.0
  0
LINE
  5
11E
330
1F
100
AcDbEntity
  8
0
  6
Continuous
 62
     7
370
    15
100
AcDbLine
 10
3.4554558047
 20
5.9491056443
 30
0.0
 11
3.4554581283
 21
5.9491466954
 31
0.0
  0
LINE
  5
11F
330
1F
100
AcDbEntity
  8
0
  6
Continuous
 62
     7
370
    15
100
AcDbLine
 10
3.3797038684
 20
5.9533993665
 30
0.0
 11
3.3797058605
 21
5.9534345596
 31
0.0
  0
LINE
  5
120
330
1F
100
AcDbEntity
  8
0
  6
Continuous
 62
     7
370
    15
100
AcDbLine
 10
3.4633380728
 20
5.6332358695
 30
0.0
 11
3.4811375412
 21
5.9476931437
 31
0.0
  0
LINE
  5
121
330
1F
100
AcDbEntity
  8
0
  6
Continuous
 62
     7
370
    15
100
AcDbLine
 10
3.4633380728
 20
5.6332358695
 30
0.0
 11
3.4406446082
 21
5.6345204052
 31
0.0
  0
LINE
  5
122
330
1F
100
AcDbEntity
  8
0
  6
Continuous
 62
     7
370
    15
100
AcDbLine
 10
3.4811375412
 20
5.9476931437
 30
0.0
 11
3.4554581283
 21
5.9491466954
 31
0.0
  0
LINE
  5
123
330
1F
100
AcDbEntity
  8
0
  6
Continuous
 62
     7
370
    15
100
AcDbLine
 10
3.3375551631
 20
5.6403556568
 30
0.0
 11
3.3553546315
 21
5.9548129311
 31
0.0
  0
LINE
  5
124
330
1F
100
AcDbEntity
  8
0
  6
Continuous
 62
     7
370
    15
100
AcDbLine
 10
3.3598641245
 20
5.6390928854
 30
0.0
 11
3.3375551631
 21
5.6403556568
 31
0.0
  0
LINE
  5
125
330
1F
100
AcDbEntity
  8
0
  6
Continuous
 62
     7
370
    15
100
AcDbLine
 10
3.3797058605
 20
5.9534345596
 30
0.0
 11
3.3553546315
 21
5.9548129311
 31
0.0
  0
LINE
  5
126
330
1F
100
AcDbEntity
  8
0
  6
Continuous
 62
     7
370
    15
100
AcDbLine
 10
3.5019240544
 20
5.8969306944
 30
0.0
 11
3.5047218368
 21
5.9463581836
 31
0.0
  0
LINE
  5
127
330
1F
100
AcDbEntity
  8
0
  6
Continuous
 62
     7
370
    15
100
AcDbLine
 10
3.4796983236
 20
5.6323098176
 30
0.0
 11
3.4633380728
 21
5.6332358695
 31
0.0
  0
LINE
  5
128
330
1F
100
AcDbEntity
  8
0
  6
Continuous
 62
     7
370
    15
100
AcDbLine
 10
3.5047218368
 20
5.9463581836
 30
0.0
 11
3.4811375412
 21
5.9476931437
 31
0.0
  0
LINE
  5
129
330
1F
100
AcDbEntity
  8
0
  6
Continuous
 62
     7
370
    15
100
AcDbLine
 10
3.3139708676
 20
5.641690617
 30
0.0
 11
3.3317703359
 21
5.9561478912
 31
0.0
  0
LINE
  5
12A
330
1F
100
AcDbEntity
  8
0
  6
Continuous
 62
     7
370
    15
100
AcDbLine
 10
3.3375551631
 20
5.6403556568
 30
0.0
 11
3.3139708676
 21
5.641690617
 31
0.0
  0
LINE
  5
12B
330
1F
100
AcDbEntity
  8
0
  6
Continuous
 62
     7
370
    15
100
AcDbLine
 10
3.3553546315
 20
5.9548129311
 30
0.0
 11
3.3317703359
 21
5.9561478912
 31
0.0
  0
LINE
  5
12C
330
1F
100
AcDbEntity
  8
0
  6
Continuous
 62
     7
370
    15
100
AcDbLine
 10
3.2676843038
 20
2.6318091291
 30
0.0
 11
3.2774634448
 21
2.8045739529
 31
0.0
  0
LINE
  5
12D
330
1F
100
AcDbEntity
  8
0
  6
Continuous
 62
     7
370
    15
100
AcDbLine
 10
3.1839117086
 20
2.4944045429
 30
0.0
 11
3.201711177
 21
2.8088618172
 31
0.0
  0
LINE
  5
12E
330
1F
100
AcDbEntity
  8
0
  6
Continuous
 62
     7
370
    15
100
AcDbLine
 10
3.2798821143
 20
2.8044370471
 30
0.0
 11
3.2774634448
 21
2.8045739529
 31
0.0
  0
LINE
  5
12F
330
1F
100
AcDbEntity
  8
0
  6
Continuous
 62
     7
370
    15
100
AcDbLine
 10
3.1595604796
 20
2.4957829144
 30
0.0
 11
3.177359948
 21
2.8102401886
 31
0.0
  0
LINE
  5
130
330
1F
100
AcDbEntity
  8
0
  6
Continuous
 62
     7
370
    15
100
AcDbLine
 10
3.201711177
 20
2.8088618172
 30
0.0
 11
3.177359948
 21
2.8102401886
 31
0.0
  0
LINE
  5
131
330
1F
100
AcDbEntity
  8
0
  6
Continuous
 62
     7
370
    15
100
AcDbLine
 10
3.1839117086
 20
2.4944045429
 30
0.0
 11
3.1595604796
 21
2.4957829144
 31
0.0
  0
LINE
  5
132
330
1F
100
AcDbEntity
  8
0
  6
Continuous
 62
     7
370
    15
100
AcDbLine
 10
3.135976184
 20
2.4971178745
 30
0.0
 11
3.1537756524
 21
2.8115751487
 31
0.0
  0
LINE
  5
133
330
1F
100
AcDbEntity
  8
0
  6
Continuous
 62
     7
370
    15
100
AcDbLine
 10
3.177359948
 20
2.8102401886
 30
0.0
 11
3.1537756524
 21
2.8115751487
 31
0.0
  0
LINE
  5
134
330
1F
100
AcDbEntity
  8
0
  6
Continuous
 62
     7
370
    15
100
AcDbLine
 10
3.1595604796
 20
2.4957829144
 30
0.0
 11
3.135976184
 21
2.4971178745
 31
0.0
  0
ARC
  5
135
330
1F
100
AcDbEntity
  8
0
  6
Continuous
 62
     7
370
    15
100
AcDbCircle
 10
6.9523347342
 20
5.5393102942
 30
0.0
 40
0.0391534399355069
100
AcDbArc
 50
5.7321046056
 51
40.3253780085
  0
LINE
  5
136
330
1F
100
AcDbEntity
  8
0
  6
Continuous
 62
     7
370
    15
100
AcDbLine
 10
6.9123903651
 20
5.5808688797
 30
0.0
 11
6.9123903651
 21
5.5414988009
 31
0.0
  0
LINE
  5
137
330
1F
100
AcDbEntity
  8
0
  6
Continuous
 62
     7
370
    15
100
AcDbLine
 10
3.9053070173
 20
5.5808683641
 30
0.0
 11
3.9053070173
 21
5.5414988009
 31
0.0
  0
ARC
  5
138
330
1F
100
AcDbEntity
  8
0
  6
Continuous
 62
     7
370
    15
100
AcDbCircle
 10
3.8653618296
 20
5.539310522
 30
0.0
 40
0.0391526027171254
100
AcDbArc
 50
138.6984698886
 51
174.2681074425
  0
SPLINE
  5
139
330
1F
100
AcDbEntity
  8
0
  6
Continuous
 62
     7
370
    15
100
AcDbSpline
210
0.0
220
0.0
230
1.0
 70
     8
 71
     3
 72
    14
 73
    10
 74
     0
 42
0.000000001
 43
0.00000001
 40
0.0
 40
0.0
 40
0.0
 40
0.0
 40
0.25
 40
0.25
 40
0.5
 40
0.5
 40
0.75
 40
0.75
 40
1.0
 40
1.0
 40
1.0
 40
1.0
 10
7.102419672017554
 20
5.515170371968646
 30
0.0
 10
7.101897334019443
 20
5.519050736249122
 30
0.0
 10
7.101399345964689
 20
5.522416468914485
 30
0.0
 10
7.100450545522269
 20
5.528159933900497
 30
0.0
 10
7.099999729082568
 20
5.530537693783267
 30
0.0
 10
7.099148111290048
 20
5.534260106161271
 30
0.0
 10
7.098759535617317
 20
5.535551330954965
 30
0.0
 10
7.098054726403841
 20
5.537039128983883
 30
0.0
 10
7.097738483429239
 20
5.537235750977792
 30
0.0
 10
7.097460541702308
 20
5.536859767371886
 30
0.0
  0
SPLINE
  5
13A
330
1F
100
AcDbEntity
  8
0
  6
Continuous
 62
     7
370
    15
100
AcDbSpline
210
0.0
220
0.0
230
1.0
 70
     8
 71
     3
 72
    15
 73
    11
 74
     0
 42
0.000000001
 43
0.00000001
 40
0.0
 40
0.0
 40
0.0
 40
0.0
 40
0.048321485236337
 40
0.0971464612358989
 40
0.1458004114466338
 40
0.2169457313030738
 40
0.2881498493512914
 40
0.359356146877131
 40
0.5729200785102175
 40
1.0
 40
1.0
 40
1.0
 40
1.0
 10
3.716356678361828
 20
5.126113475845472
 30
0.0
 10
3.718338698405591
 20
5.138537733016047
 30
0.0
 10
3.722323390358009
 20
5.163515703202662
 30
0.0
 10
3.727699205171406
 20
5.190131840753056
 30
0.0
 10
3.7331699654662
 20
5.209933003252141
 30
0.0
 10
3.738588977176307
 20
5.221763222268457
 30
0.0
 10
3.744403327461149
 20
5.231581485956781
 30
0.0
 10
3.754175338268549
 20
5.248107654070086
 30
0.0
 10
3.774482119197237
 20
5.288079729448988
 30
0.0
 10
3.793256952082909
 20
5.321757982952954
 30
0.0
 10
3.805773039009694
 20
5.344209311865696
 30
0.0
  0
SPLINE
  5
13B
330
1F
100
AcDbEntity
  8
0
  6
Continuous
 62
     7
370
    15
100
AcDbSpline
210
0.0
220
0.0
230
1.0
 70
     8
 71
     3
 72
    11
 73
     7
 74
     0
 42
0.000000001
 43
0.00000001
 40
0.0
 40
0.0
 40
0.0
 40
0.0
 40
0.3782102275313404
 40
0.6819133844514554
 40
0.9856968069924962
 40
1.0
 40
1.0
 40
1.0
 40
1.0
 10
3.759464776042348
 20
5.573341281476592
 30
0.0
 10
3.764992839297364
 20
5.566559925863678
 30
0.0
 10
3.774959942377299
 20
5.554333135521822
 30
0.0
 10
3.789877715067411
 20
5.545405274854605
 30
0.0
 10
3.799397911429987
 20
5.541527008130244
 30
0.0
 10
3.80448322069472
 20
5.542033823783366
 30
0.0
 10
3.804711888473749
 20
5.542056613431694
 30
0.0
  0
LINE
  5
13C
330
1F
100
AcDbEntity
  8
0
  6
Continuous
 62
     7
370
    15
100
AcDbLine
 10
7.0582326064
 20
5.5733412815
 30
0.0
 11
6.9715496531
 21
5.5733412815
 31
0.0
  0
LINE
  5
13D
330
1F
100
AcDbEntity
  8
0
  6
Continuous
 62
     7
370
    15
100
AcDbLine
 10
3.845998644
 20
5.5733412815
 30
0.0
 11
3.759464776
 21
5.5733412815
 31
0.0
  0
SPLINE
  5
13E
330
1F
100
AcDbEntity
  8
0
  6
Continuous
 62
     7
370
    15
100
AcDbSpline
210
0.0
220
0.0
230
1.0
 70
     8
 71
     3
 72
    11
 73
     7
 74
     0
 42
0.000000001
 43
0.00000001
 40
0.0
 40
0.0
 40
0.0
 40
0.0
 40
0.0139835852659526
 40
0.3177851967990729
 40
0.6216671395101158
 40
1.0
 40
1.0
 40
1.0
 40
1.0
 10
7.013001027431902
 20
5.542055209832871
 30
0.0
 10
7.013224511091741
 20
5.542032960926602
 30
0.0
 10
7.018303308658501
 20
5.541527341450425
 30
0.0
 10
7.027818364470651
 20
5.545405605467581
 30
0.0
 10
7.042736288920867
 20
5.554331457121243
 30
0.0
 10
7.052704551100192
 20
5.566559840649367
 30
0.0
 10
7.058232606379442
 20
5.57334128147659
 30
0.0
  0
LINE
  5
13F
330
1F
100
AcDbEntity
  8
0
  6
Continuous
 62
     7
370
    15
100
AcDbLine
 10
7.0582326064
 20
5.5733412815
 30
0.0
 11
7.0585489001
 21
5.5731048006
 31
0.0
  0
LINE
  5
140
330
1F
100
AcDbEntity
  8
0
  6
Continuous
 62
     7
370
    15
100
AcDbLine
 10
3.6372404427
 20
5.902267712
 30
0.0
 11
3.6372404427
 21
5.9967558959
 31
0.0
  0
LWPOLYLINE
  5
141
330
1F
100
AcDbEntity
  8
0
  6
Continuous
 62
     7
370
    15
100
AcDbPolyline
 90
       15
 70
   128
 43
0.0
 10
3.5904817077
 20
5.8595945272
 10
3.5902460611
 20
5.8589939977
 10
3.5875915495
 20
5.8574487959
 10
3.5821576103
 20
5.8562490131
 10
3.5742856778
 20
5.8554700361
 10
3.5644703746
 20
5.855160811
 10
3.5533284322
 20
5.8553407673
 10
3.5415599399
 20
5.8559985979
 10
3.5299043552
 20
5.8570929688
 10
3.5190940416
 20
5.8585551167
 10
3.5098082506
 20
5.8602931694
 10
3.5026304427
 20
5.8621979187
 10
3.4980116261
 20
5.8641496822
 10
3.4962420178
 20
5.8660258234
 10
3.4962300422
 20
5.8662727258
  0
LINE
  5
142
330
1F
100
AcDbEntity
  8
0
  6
Continuous
 62
     7
370
    15
100
AcDbLine
 10
7.1804564068
 20
5.9022677082
 30
0.0
 11
7.1804564068
 21
5.9967558972
 31
0.0
  0
LWPOLYLINE
  5
143
330
1F
100
AcDbEntity
  8
0
  6
Continuous
 62
     7
370
    15
100
AcDbPolyline
 90
       15
 70
   128
 43
0.0
 10
7.2272151669
 20
5.8595942519
 10
7.2274507883
 20
5.8589939977
 10
7.2301052999
 20
5.8574487959
 10
7.2355392392
 20
5.8562490131
 10
7.2434111716
 20
5.8554700361
 10
7.2532264748
 20
5.855160811
 10
7.2643684172
 20
5.8553407673
 10
7.2761369095
 20
5.8559985979
 10
7.2877924942
 20
5.8570929688
 10
7.2986028079
 20
5.8585551167
 10
7.3078885988
 20
5.8602931694
 10
7.3150664067
 20
5.8621979187
 10
7.3196852234
 20
5.8641496822
 10
7.3214548316
 20
5.8660258234
 10
7.3214668075
 20
5.8662727228
  0
LWPOLYLINE
  5
144
330
1F
100
AcDbEntity
  8
0
  6
Continuous
 62
     7
370
    15
100
AcDbPolyline
 90
       15
 70
   128
 43
0.0
 10
7.4778020914
 20
2.3131923119
 10
7.4780394947
 20
2.3125701024
 10
7.4806940063
 20
2.3110249006
 10
7.4861279455
 20
2.3098251178
 10
7.493999878
 20
2.3090461408
 10
7.5038151812
 20
2.3087369157
 10
7.5149571236
 20
2.308916872
 10
7.5267256159
 20
2.3095747026
 10
7.5383812005
 20
2.3106690736
 10
7.5491915142
 20
2.3121312214
 10
7.5584773052
 20
2.3138692741
 10
7.565655113
 20
2.3157740234
 10
7.5702739297
 20
2.3177257869
 10
7.572043538
 20
2.3196019281
 10
7.572055281
 20
2.3198521996
  0
LWPOLYLINE
  5
145
330
1F
100
AcDbEntity
  8
0
  6
Continuous
 62
     7
370
    15
100
AcDbPolyline
 90
       15
 70
   128
 43
0.0
 10
3.339894758
 20
2.3131923119
 10
3.3396573547
 20
2.3125701024
 10
3.3370028431
 20
2.3110249006
 10
3.3315689039
 20
2.3098251178
 10
3.3236969715
 20
2.3090461408
 10
3.3138816683
 20
2.3087369157
 10
3.3027397259
 20
2.308916872
 10
3.2909712335
 20
2.3095747026
 10
3.2793156489
 20
2.3106690736
 10
3.2685053352
 20
2.3121312214
 10
3.2592195442
 20
2.3138692741
 10
3.2520417364
 20
2.3157740234
 10
3.2474229197
 20
2.3177257869
 10
3.2456533115
 20
2.3196019281
 10
3.2456415684
 20
2.3198521996
  0
LINE
  5
146
330
1F
100
AcDbEntity
  8
0
  6
Continuous
 62
     7
370
    15
100
AcDbLine
 10
7.4310451131
 20
2.2637125941
 30
0.0
 11
7.4310451131
 21
2.1697426687
 31
0.0
  0
LINE
  5
147
330
1F
100
AcDbEntity
  8
0
  6
Continuous
 62
     7
370
    15
100
AcDbLine
 10
3.3866517363
 20
2.2637125932
 30
0.0
 11
3.3866517363
 21
2.1697426687
 31
0.0
  0
ENDSEC
  0
SECTION
  2
OBJECTS
  0
DICTIONARY
  5
C
330
0
100
AcDbDictionary
281
     1
  3
ACAD_DETAILVIEWSTYLE
350
14C
  3
ACAD_GROUP
350
D
  3
ACAD_LAYOUT
350
1A
  3
ACAD_MATERIAL
350
43
  3
ACAD_MLEADERSTYLE
350
14B
  3
ACAD_MLINESTYLE
350
17
  3
ACAD_PLOTSETTINGS
350
19
  3
ACAD_PLOTSTYLENAME
350
E
  3
ACAD_SCALELIST
350
47
  3
ACAD_SECTIONVIEWSTYLE
350
14D
  3
ACAD_TABLESTYLE
350
14A
  3
ACAD_VISUALSTYLE
350
2A
  3
AcDbVariableDictionary
350
148
  0
SUN
  5
69
330
29
100
AcDbSun
 90
        1
290
     0
 63
     7
421
 16777215
 40
1.0
291
     1
 91
  2455826
 92
 54000000
292
     0
 70
     2
 71
   256
280
     1
  0
DICTIONARY
  5
14C
102
{ACAD_REACTORS
330
C
102
}
330
C
100
AcDbDictionary
281
     1
  0
DICTIONARY
  5
D
102
{ACAD_REACTORS
330
C
102
}
330
C
100
AcDbDictionary
281
     1
  0
DICTIONARY
  5
1A
102
{ACAD_REACTORS
330
C
102
}
330
C
100
AcDbDictionary
281
     1
  3
Layout1
350
1E
  3
Layout2
350
26
  3
Model
350
22
  0
DICTIONARY
  5
43
102
{ACAD_REACTORS
330
C
102
}
330
C
100
AcDbDictionary
281
     1
  3
ByBlock
350
45
  3
ByLayer
350
44
  3
Global
350
46
  0
DICTIONARY
  5
14B
102
{ACAD_REACTORS
330
C
102
}
330
C
100
AcDbDictionary
281
     1
  0
DICTIONARY
  5
17
102
{ACAD_REACTORS
330
C
102
}
330
C
100
AcDbDictionary
281
     1
  3
Standard
350
18
  0
DICTIONARY
  5
19
102
{ACAD_REACTORS
330
C
102
}
330
C
100
AcDbDictionary
281
     1
  0
ACDBDICTIONARYWDFLT
  5
E
102
{ACAD_REACTORS
330
C
102
}
330
C
100
AcDbDictionary
281
     1
  3
Normal
350
F
100
AcDbDictionaryWithDefault
340
F
  0
DICTIONARY
  5
47
102
{ACAD_REACTORS
330
C
102
}
330
C
100
AcDbDictionary
281
     1
  3
A0
350
48
  3
A1
350
49
  3
A2
350
4A
  3
A3
350
4B
  3
A4
350
4C
  3
A5
350
4D
  3
A6
350
4E
  3
A7
350
4F
  3
A8
350
50
  3
A9
350
51
  3
B0
350
52
  3
B1
350
53
  3
B2
350
54
  3
B3
350
55
  3
B4
350
56
  3
B5
350
57
  3
B6
350
58
  3
B7
350
59
  3
B8
350
5A
  3
B9
350
5B
  3
C0
350
5C
  3
C1
350
5D
  3
C2
350
5E
  3
C3
350
5F
  3
C4
350
60
  3
C5
350
61
  3
C6
350
62
  3
C7
350
63
  3
C8
350
64
  3
C9
350
65
  3
D0
350
66
  3
D1
350
67
  3
D2
350
68
  0
DICTIONARY
  5
14D
102
{ACAD_REACTORS
330
C
102
}
330
C
100
AcDbDictionary
281
     1
  0
DICTIONARY
  5
14A
102
{ACAD_REACTORS
330
C
102
}
330
C
100
AcDbDictionary
281
     1
  0
DICTIONARY
  5
2A
102
{ACAD_REACTORS
330
C
102
}
330
C
100
AcDbDictionary
281
     1
  3
2dWireframe
350
2F
  3
Basic
350
32
  3
Brighten
350
36
  3
ColorChange
350
3A
  3
Conceptual
350
34
  3
Dim
350
35
  3
EdgeColorOff
350
3D
  3
Facepattern
350
39
  3
Flat
350
2B
  3
FlatWithEdges
350
2C
  3
Gouraud
350
2D
  3
GouraudWithEdges
350
2E
  3
Hidden
350
31
  3
JitterOff
350
3B
  3
Linepattern
350
38
  3
OverhangOff
350
3C
  3
Realistic
350
33
  3
Shaded
350
42
  3
Shaded with edges
350
41
  3
Shades of Gray
350
3E
  3
Sketchy
350
3F
  3
Thicken
350
37
  3
Wireframe
350
30
  3
X-Ray
350
40
  0
DICTIONARY
  5
148
102
{ACAD_REACTORS
330
C
102
}
330
C
100
AcDbDictionary
281
     1
  3
CANNOSCALE
350
149
  0
LAYOUT
  5
1E
102
{ACAD_REACTORS
330
1A
102
}
330
1A
100
AcDbPlotSettings
  1

  2
none_device
  4

  6

 40
0.0
 41
0.0
 42
0.0
 43
0.0
 44
0.0
 45
0.0
 46
0.0
 47
0.0
 48
0.0
 49
0.0
140
0.0
141
0.0
142
1.0
143
1.0
 70
   688
 72
     0
 73
     0
 74
     5
  7

 75
    16
 76
     0
 77
     2
 78
   300
147
1.0
148
0.0
149
0.0
100
AcDbLayout
  1
Layout1
 70
     1
 71
     1
 10
0.0
 20
0.0
 11
12.0
 21
9.0
 12
0.0
 22
0.0
 32
0.0
 14
1.0000000000E+20
 24
1.0000000000E+20
 34
1.0000000000E+20
 15
-1.0000000000E+20
 25
-1.0000000000E+20
 35
-1.0000000000E+20
146
0.0
 13
0.0
 23
0.0
 33
0.0
 16
1.0
 26
0.0
 36
0.0
 17
0.0
 27
1.0
 37
0.0
 76
     0
330
1B
  0
LAYOUT
  5
26
102
{ACAD_REACTORS
330
1A
102
}
330
1A
100
AcDbPlotSettings
  1

  2
none_device
  4

  6

 40
0.0
 41
0.0
 42
0.0
 43
0.0
 44
0.0
 45
0.0
 46
0.0
 47
0.0
 48
0.0
 49
0.0
140
0.0
141
0.0
142
1.0
143
1.0
 70
   688
 72
     0
 73
     0
 74
     5
  7

 75
    16
 76
     0
 77
     2
 78
   300
147
1.0
148
0.0
149
0.0
100
AcDbLayout
  1
Layout2
 70
     1
 71
     2
 10
0.0
 20
0.0
 11
0.0
 21
0.0
 12
0.0
 22
0.0
 32
0.0
 14
0.0
 24
0.0
 34
0.0
 15
0.0
 25
0.0
 35
0.0
146
0.0
 13
0.0
 23
0.0
 33
0.0
 16
1.0
 26
0.0
 36
0.0
 17
0.0
 27
1.0
 37
0.0
 76
     0
330
23
  0
LAYOUT
  5
22
102
{ACAD_REACTORS
330
1A
102
}
330
1A
100
AcDbPlotSettings
  1

  2
none_device
  4
Letter_(8.50_x_11.00_Inches)
  6

 40
6.35
 41
6.35
 42
6.35000508
 43
6.35000508
 44
215.9
 45
279.4
 46
0.0
 47
0.0
 48
0.0
 49
0.0
140
0.0
141
0.0
142
1.0
143
1.0
 70
  1712
 72
     0
 73
     0
 74
     0
  7

 75
     0
 76
     0
 77
     2
 78
   300
147
1.0
148
0.0
149
0.0
100
AcDbLayout
  1
Model
 70
     1
 71
     0
 10
0.0
 20
0.0
 11
11.6929133858
 21
8.2677165354
 12
0.0
 22
0.0
 32
0.0
 14
0.0
 24
0.0
 34
0.0
 15
11.6929133858
 25
8.2677165354
 35
0.0
146
0.0
 13
0.0
 23
0.0
 33
0.0
 16
1.0
 26
0.0
 36
0.0
 17
0.0
 27
1.0
 37
0.0
 76
     0
330
1F
331
29
  0
MATERIAL
  5
45
102
{ACAD_REACTORS
330
43
102
}
330
43
100
AcDbMaterial
  1
ByBlock
 72
     1
 94
      127
  0
MATERIAL
  5
44
102
{ACAD_REACTORS
330
43
102
}
330
43
100
AcDbMaterial
  1
ByLayer
 72
     1
 94
      127
  0
MATERIAL
  5
46
102
{ACAD_REACTORS
330
43
102
}
330
43
100
AcDbMaterial
  1
Global
 72
     1
 94
      127
  0
MLINESTYLE
  5
18
102
{ACAD_REACTORS
330
17
102
}
330
17
100
AcDbMlineStyle
  2
Standard
 70
     0
  3

 62
   256
 51
90.0
 52
90.0
 71
     2
 49
0.5
 62
   256
  6
BYLAYER
 49
-0.5
 62
   256
  6
BYLAYER
  0
ACDBPLACEHOLDER
  5
F
102
{ACAD_REACTORS
330
E
102
}
330
E
  0
SCALE
  5
48
102
{ACAD_REACTORS
330
47
102
}
330
47
100
AcDbScale
 70
     0
300
1:1
140
1.0
141
1.0
290
     1
  0
SCALE
  5
49
102
{ACAD_REACTORS
330
47
102
}
330
47
100
AcDbScale
 70
     0
300
1:2
140
1.0
141
2.0
290
     0
  0
SCALE
  5
4A
102
{ACAD_REACTORS
330
47
102
}
330
47
100
AcDbScale
 70
     0
300
1:4
140
1.0
141
4.0
290
     0
  0
SCALE
  5
4B
102
{ACAD_REACTORS
330
47
102
}
330
47
100
AcDbScale
 70
     0
300
1:5
140
1.0
141
5.0
290
     0
  0
SCALE
  5
4C
102
{ACAD_REACTORS
330
47
102
}
330
47
100
AcDbScale
 70
     0
300
1:8
140
1.0
141
8.0
290
     0
  0
SCALE
  5
4D
102
{ACAD_REACTORS
330
47
102
}
330
47
100
AcDbScale
 70
     0
300
1:10
140
1.0
141
10.0
290
     0
  0
SCALE
  5
4E
102
{ACAD_REACTORS
330
47
102
}
330
47
100
AcDbScale
 70
     0
300
1:16
140
1.0
141
16.0
290
     0
  0
SCALE
  5
4F
102
{ACAD_REACTORS
330
47
102
}
330
47
100
AcDbScale
 70
     0
300
1:20
140
1.0
141
20.0
290
     0
  0
SCALE
  5
50
102
{ACAD_REACTORS
330
47
102
}
330
47
100
AcDbScale
 70
     0
300
1:30
140
1.0
141
30.0
290
     0
  0
SCALE
  5
51
102
{ACAD_REACTORS
330
47
102
}
330
47
100
AcDbScale
 70
     0
300
1:40
140
1.0
141
40.0
290
     0
  0
SCALE
  5
52
102
{ACAD_REACTORS
330
47
102
}
330
47
100
AcDbScale
 70
     0
300
1:50
140
1.0
141
50.0
290
     0
  0
SCALE
  5
53
102
{ACAD_REACTORS
330
47
102
}
330
47
100
AcDbScale
 70
     0
300
1:100
140
1.0
141
100.0
290
     0
  0
SCALE
  5
54
102
{ACAD_REACTORS
330
47
102
}
330
47
100
AcDbScale
 70
     0
300
2:1
140
2.0
141
1.0
290
     0
  0
SCALE
  5
55
102
{ACAD_REACTORS
330
47
102
}
330
47
100
AcDbScale
 70
     0
300
4:1
140
4.0
141
1.0
290
     0
  0
SCALE
  5
56
102
{ACAD_REACTORS
330
47
102
}
330
47
100
AcDbScale
 70
     0
300
8:1
140
8.0
141
1.0
290
     0
  0
SCALE
  5
57
102
{ACAD_REACTORS
330
47
102
}
330
47
100
AcDbScale
 70
     0
300
10:1
140
10.0
141
1.0
290
     0
  0
SCALE
  5
58
102
{ACAD_REACTORS
330
47
102
}
330
47
100
AcDbScale
 70
     0
300
100:1
140
100.0
141
1.0
290
     0
  0
SCALE
  5
59
102
{ACAD_REACTORS
330
47
102
}
330
47
100
AcDbScale
 70
     0
300
1/128" = 1'-0"
140
0.0078125
141
12.0
290
     0
  0
SCALE
  5
5A
102
{ACAD_REACTORS
330
47
102
}
330
47
100
AcDbScale
 70
     0
300
1/64" = 1'-0"
140
0.015625
141
12.0
290
     0
  0
SCALE
  5
5B
102
{ACAD_REACTORS
330
47
102
}
330
47
100
AcDbScale
 70
     0
300
1/32" = 1'-0"
140
0.03125
141
12.0
290
     0
  0
SCALE
  5
5C
102
{ACAD_REACTORS
330
47
102
}
330
47
100
AcDbScale
 70
     0
300
1/16" = 1'-0"
140
0.0625
141
12.0
290
     0
  0
SCALE
  5
5D
102
{ACAD_REACTORS
330
47
102
}
330
47
100
AcDbScale
 70
     0
300
3/32" = 1'-0"
140
0.09375
141
12.0
290
     0
  0
SCALE
  5
5E
102
{ACAD_REACTORS
330
47
102
}
330
47
100
AcDbScale
 70
     0
300
1/8" = 1'-0"
140
0.125
141
12.0
290
     0
  0
SCALE
  5
5F
102
{ACAD_REACTORS
330
47
102
}
330
47
100
AcDbScale
 70
     0
300
3/16" = 1'-0"
140
0.1875
141
12.0
290
     0
  0
SCALE
  5
60
102
{ACAD_REACTORS
330
47
102
}
330
47
100
AcDbScale
 70
     0
300
1/4" = 1'-0"
140
0.25
141
12.0
290
     0
  0
SCALE
  5
61
102
{ACAD_REACTORS
330
47
102
}
330
47
100
AcDbScale
 70
     0
300
3/8" = 1'-0"
140
0.375
141
12.0
290
     0
  0
SCALE
  5
62
102
{ACAD_REACTORS
330
47
102
}
330
47
100
AcDbScale
 70
     0
300
1/2" = 1'-0"
140
0.5
141
12.0
290
     0
  0
SCALE
  5
63
102
{ACAD_REACTORS
330
47
102
}
330
47
100
AcDbScale
 70
     0
300
3/4" = 1'-0"
140
0.75
141
12.0
290
     0
  0
SCALE
  5
64
102
{ACAD_REACTORS
330
47
102
}
330
47
100
AcDbScale
 70
     0
300
1" = 1'-0"
140
1.0
141
12.0
290
     0
  0
SCALE
  5
65
102
{ACAD_REACTORS
330
47
102
}
330
47
100
AcDbScale
 70
     0
300
1-1/2" = 1'-0"
140
1.5
141
12.0
290
     0
  0
SCALE
  5
66
102
{ACAD_REACTORS
330
47
102
}
330
47
100
AcDbScale
 70
     0
300
3" = 1'-0"
140
3.0
141
12.0
290
     0
  0
SCALE
  5
67
102
{ACAD_REACTORS
330
47
102
}
330
47
100
AcDbScale
 70
     0
300
6" = 1'-0"
140
6.0
141
12.0
290
     0
  0
SCALE
  5
68
102
{ACAD_REACTORS
330
47
102
}
330
47
100
AcDbScale
 70
     0
300
1'-0" = 1'-0"
140
12.0
141
12.0
290
     0
  0
VISUALSTYLE
  5
2F
102
{ACAD_REACTORS
330
2A
102
}
330
2A
100
AcDbVisualStyle
  2
2dWireframe
 70
     4
 71
     0
 72
     2
 73
     0
 90
        0
 40
0.6
 41
30.0
 62
     5
 63
     7
421
 16777215
 74
     1
 91
        4
 64
     7
 65
   257
 75
     1
175
     1
 42
1.0
 92
        0
 66
   257
 43
1.0
 76
     1
 77
     6
 78
     2
 67
     7
 79
     5
170
     0
171
     0
290
     0
174
     0
 93
        1
 44
0.0
173
     0
291
     0
 45
0.0
  0
VISUALSTYLE
  5
32
102
{ACAD_REACTORS
330
2A
102
}
330
2A
100
AcDbVisualStyle
  2
Basic
 70
     7
 71
     1
 72
     0
 73
     1
 90
        0
 40
0.6
 41
30.0
 62
     5
 63
     7
421
 16777215
 74
     0
 91
        4
 64
     7
 65
   257
 75
     1
175
     1
 42
1.0
 92
        8
 66
     7
 43
1.0
 76
     1
 77
     6
 78
     2
 67
     7
 79
     5
170
     0
171
     0
290
     0
174
     0
 93
        1
 44
0.0
173
     0
291
     1
 45
0.0
  0
VISUALSTYLE
  5
36
102
{ACAD_REACTORS
330
2A
102
}
330
2A
100
AcDbVisualStyle
  2
Brighten
 70
    12
 71
     2
 72
     2
 73
     0
 90
        0
 40
0.6
 41
30.0
 62
     5
 63
     7
421
 16777215
 74
     1
 91
        4
 64
     7
 65
   257
 75
     1
175
     1
 42
1.0
 92
        8
 66
     7
 43
1.0
 76
     1
 77
     6
 78
     2
 67
     7
 79
     5
170
     0
171
     0
290
     0
174
     0
 93
        1
 44
50.0
173
     0
291
     1
 45
0.0
  0
VISUALSTYLE
  5
3A
102
{ACAD_REACTORS
330
2A
102
}
330
2A
100
AcDbVisualStyle
  2
ColorChange
 70
    16
 71
     2
 72
     2
 73
     3
 90
        0
 40
0.6
 41
30.0
 62
     5
 63
     8
421
  8421504
 74
     1
 91
        4
 64
     7
 65
   257
 75
     1
175
     1
 42
1.0
 92
        8
 66
     8
424
  8421504
 43
1.0
 76
     1
 77
     6
 78
     2
 67
     7
 79
     5
170
     0
171
     0
290
     0
174
     0
 93
        1
 44
0.0
173
     0
291
     1
 45
0.0
  0
VISUALSTYLE
  5
34
102
{ACAD_REACTORS
330
2A
102
}
330
2A
100
AcDbVisualStyle
  2
Conceptual
 70
     9
 71
     3
 72
     2
 73
     0
 90
        0
 40
0.6
 41
30.0
 62
     5
 63
     7
421
 16777215
 74
     2
 91
        2
 64
     7
 65
   257
 75
     1
175
     1
 42
179.0
 92
        8
 66
     7
 43
1.0
 76
     1
 77
     6
 78
     2
 67
     7
 79
     3
170
     0
171
     0
290
     0
174
     0
 93
        1
 44
0.0
173
     0
291
     0
 45
0.0
  0
VISUALSTYLE
  5
35
102
{ACAD_REACTORS
330
2A
102
}
330
2A
100
AcDbVisualStyle
  2
Dim
 70
    11
 71
     2
 72
     2
 73
     0
 90
        0
 40
0.6
 41
30.0
 62
     5
 63
     7
421
 16777215
 74
     1
 91
        4
 64
     7
 65
   257
 75
     1
175
     1
 42
1.0
 92
        8
 66
     7
 43
1.0
 76
     1
 77
     6
 78
     2
 67
     7
 79
     5
170
     0
171
     0
290
     0
174
     0
 93
        1
 44
-50.0
173
     0
291
     1
 45
0.0
  0
VISUALSTYLE
  5
3D
102
{ACAD_REACTORS
330
2A
102
}
330
2A
100
AcDbVisualStyle
  2
EdgeColorOff
 70
    22
 71
     2
 72
     2
 73
     0
 90
        0
 40
0.6
 41
30.0
 62
     5
 63
     7
421
 16777215
 74
     1
 91
        4
 64
     7
 65
   257
 75
     1
175
     1
 42
1.0
 92
        8
 66
     7
 43
1.0
 76
     1
 77
     6
 78
     2
 67
     7
 79
     5
170
     0
171
     0
290
     0
174
     0
 93
        1
 44
0.0
173
     0
291
     1
 45
0.0
  0
VISUALSTYLE
  5
39
102
{ACAD_REACTORS
330
2A
102
}
330
2A
100
AcDbVisualStyle
  2
Facepattern
 70
    15
 71
     2
 72
     2
 73
     0
 90
        0
 40
0.6
 41
30.0
 62
     5
 63
     7
421
 16777215
 74
     1
 91
        4
 64
     7
 65
   257
 75
     1
175
     1
 42
1.0
 92
        8
 66
     7
 43
1.0
 76
     1
 77
     6
 78
     2
 67
     7
 79
     5
170
     0
171
     0
290
     0
174
     0
 93
        1
 44
0.0
173
     0
291
     1
 45
0.0
  0
VISUALSTYLE
  5
2B
102
{ACAD_REACTORS
330
2A
102
}
330
2A
100
AcDbVisualStyle
  2
Flat
 70
     0
 71
     2
 72
     1
 73
     1
 90
        2
 40
0.6
 41
30.0
 62
     5
 63
     7
421
 16777215
 74
     0
 91
        0
 64
     7
 65
   257
 75
     1
175
     1
 42
1.0
 92
        8
 66
     7
 43
1.0
 76
     1
 77
     6
 78
     2
 67
     7
 79
     5
170
     0
171
     0
290
     0
174
     0
 93
       13
 44
0.0
173
     0
291
     1
 45
0.0
  0
VISUALSTYLE
  5
2C
102
{ACAD_REACTORS
330
2A
102
}
330
2A
100
AcDbVisualStyle
  2
FlatWithEdges
 70
     1
 71
     2
 72
     1
 73
     1
 90
        2
 40
0.6
 41
30.0
 62
     5
 63
     7
421
 16777215
 74
     1
 91
        0
 64
     7
 65
   257
 75
     1
175
     1
 42
1.0
 92
        0
 66
   257
 43
1.0
 76
     1
 77
     6
 78
     2
 67
     7
 79
     5
170
     0
171
     0
290
     0
174
     0
 93
       13
 44
0.0
173
     0
291
     1
 45
0.0
  0
VISUALSTYLE
  5
2D
102
{ACAD_REACTORS
330
2A
102
}
330
2A
100
AcDbVisualStyle
  2
Gouraud
 70
     2
 71
     2
 72
     2
 73
     1
 90
        2
 40
0.6
 41
30.0
 62
     5
 63
     7
421
 16777215
 74
     0
 91
        0
 64
     7
 65
   257
 75
     1
175
     1
 42
1.0
 92
        0
 66
     7
 43
1.0
 76
     1
 77
     6
 78
     2
 67
     7
 79
     5
170
     0
171
     0
290
     0
174
     0
 93
       13
 44
0.0
173
     0
291
     1
 45
0.0
  0
VISUALSTYLE
  5
2E
102
{ACAD_REACTORS
330
2A
102
}
330
2A
100
AcDbVisualStyle
  2
GouraudWithEdges
 70
     3
 71
     2
 72
     2
 73
     1
 90
        2
 40
0.6
 41
30.0
 62
     5
 63
     7
421
 16777215
 74
     1
 91
        0
 64
     7
 65
   257
 75
     1
175
     1
 42
1.0
 92
        0
 66
   257
 43
1.0
 76
     1
 77
     6
 78
     2
 67
     7
 79
     5
170
     0
171
     0
290
     0
174
     0
 93
       13
 44
0.0
173
     0
291
     1
 45
0.0
  0
VISUALSTYLE
  5
31
102
{ACAD_REACTORS
330
2A
102
}
330
2A
100
AcDbVisualStyle
  2
Hidden
 70
     6
 71
     1
 72
     2
 73
     2
 90
        0
 40
0.6
 41
30.0
 62
     5
 63
     7
421
 16777215
 74
     2
 91
        2
 64
     7
 65
   257
 75
     2
175
     1
 42
40.0
 92
        0
 66
   257
 43
1.0
 76
     1
 77
     6
 78
     2
 67
     7
 79
     3
170
     0
171
     0
290
     0
174
     0
 93
        1
 44
0.0
173
     0
291
     0
 45
0.0
  0
VISUALSTYLE
  5
3B
102
{ACAD_REACTORS
330
2A
102
}
330
2A
100
AcDbVisualStyle
  2
JitterOff
 70
    20
 71
     2
 72
     2
 73
     0
 90
        0
 40
0.6
 41
30.0
 62
     5
 63
     7
421
 16777215
 74
     1
 91
        4
 64
     7
 65
   257
 75
     1
175
     1
 42
1.0
 92
       10
 66
     7
 43
1.0
 76
     1
 77
     6
 78
     2
 67
     7
 79
     5
170
     0
171
     0
290
     0
174
     0
 93
        1
 44
0.0
173
     0
291
     1
 45
0.0
  0
VISUALSTYLE
  5
38
102
{ACAD_REACTORS
330
2A
102
}
330
2A
100
AcDbVisualStyle
  2
Linepattern
 70
    14
 71
     2
 72
     2
 73
     0
 90
        0
 40
0.6
 41
30.0
 62
     5
 63
     7
421
 16777215
 74
     1
 91
        4
 64
     7
 65
   257
 75
     7
175
     7
 42
1.0
 92
        8
 66
     7
 43
1.0
 76
     1
 77
     6
 78
     2
 67
     7
 79
     5
170
     0
171
     0
290
     0
174
     0
 93
        1
 44
0.0
173
     0
291
     1
 45
0.0
  0
VISUALSTYLE
  5
3C
102
{ACAD_REACTORS
330
2A
102
}
330
2A
100
AcDbVisualStyle
  2
OverhangOff
 70
    21
 71
     2
 72
     2
 73
     0
 90
        0
 40
0.6
 41
30.0
 62
     5
 63
     7
421
 16777215
 74
     1
 91
        4
 64
     7
 65
   257
 75
     1
175
     1
 42
1.0
 92
        9
 66
     7
 43
1.0
 76
     1
 77
     6
 78
     2
 67
     7
 79
     5
170
     0
171
     0
290
     0
174
     0
 93
        1
 44
0.0
173
     0
291
     1
 45
0.0
  0
VISUALSTYLE
  5
33
102
{ACAD_REACTORS
330
2A
102
}
330
2A
100
AcDbVisualStyle
  2
Realistic
 70
     8
 71
     2
 72
     3
 73
     0
 90
        2
 40
0.6
 41
30.0
 62
     5
 63
     7
421
 16777215
 74
     0
 91
        0
 64
     7
 65
   257
 75
     1
175
     1
 42
1.0
 92
        8
 66
   257
 43
1.0
 76
     1
 77
     6
 78
     2
 67
     7
 79
     3
170
     0
171
     0
290
     0
174
     0
 93
       13
 44
0.0
173
     0
291
     0
 45
0.0
  0
VISUALSTYLE
  5
42
102
{ACAD_REACTORS
330
2A
102
}
330
2A
100
AcDbVisualStyle
  2
Shaded
 70
    27
 71
     2
 72
     2
 73
     1
 90
        2
 40
0.6
 41
30.0
 62
     5
 63
     7
421
 16777215
 74
     0
 91
        4
 64
     7
 65
   257
 75
     1
175
     1
 42
1.0
 92
        8
 66
   257
 43
1.0
 76
     1
 77
     6
 78
     2
 67
     8
425
  7895160
 79
     3
170
     0
171
     0
290
     0
174
     0
 93
        5
 44
0.0
173
     0
291
     0
 45
0.0
  0
VISUALSTYLE
  5
41
102
{ACAD_REACTORS
330
2A
102
}
330
2A
100
AcDbVisualStyle
  2
Shaded with edges
 70
    26
 71
     2
 72
     2
 73
     1
 90
        2
 40
0.6
 41
30.0
 62
     5
 63
     7
421
 16777215
 74
     1
 91
       10
 64
     7
 65
   257
 75
     2
175
     1
 42
1.0
 92
        8
 66
   257
 43
1.0
 76
     1
 77
     6
 78
     2
 67
     7
 79
     3
170
     0
171
     0
290
     0
174
     0
 93
        5
 44
0.0
173
     0
291
     0
 45
0.0
  0
VISUALSTYLE
  5
3E
102
{ACAD_REACTORS
330
2A
102
}
330
2A
100
AcDbVisualStyle
  2
Shades of Gray
 70
    23
 71
     2
 72
     2
 73
     3
 90
        0
 40
0.6
 41
30.0
 62
     5
 63
     7
421
 16777215
 74
     2
 91
        2
 64
     7
 65
     7
 75
     1
175
     1
 42
40.0
 92
        8
 66
     7
 43
1.0
 76
     1
 77
     6
 78
     2
 67
     7
 79
     3
170
     0
171
     0
290
     0
174
     0
 93
        1
 44
0.0
173
     0
291
     0
 45
0.0
  0
VISUALSTYLE
  5
3F
102
{ACAD_REACTORS
330
2A
102
}
330
2A
100
AcDbVisualStyle
  2
Sketchy
 70
    24
 71
     1
 72
     2
 73
     2
 90
        0
 40
0.6
 41
30.0
 62
     5
 63
     7
421
 16777215
 74
     2
 91
        2
 64
     7
 65
     7
 75
     1
175
     1
 42
40.0
 92
       11
 66
     7
 43
1.0
 76
     1
 77
     6
 78
     2
 67
     7
 79
     6
170
     0
171
     0
290
     0
174
     0
 93
        1
 44
0.0
173
     0
291
     0
 45
0.0
  0
VISUALSTYLE
  5
37
102
{ACAD_REACTORS
330
2A
102
}
330
2A
100
AcDbVisualStyle
  2
Thicken
 70
    13
 71
     2
 72
     2
 73
     0
 90
        0
 40
0.6
 41
30.0
 62
     5
 63
     7
421
 16777215
 74
     1
 91
        4
 64
     7
 65
   257
 75
     1
175
     1
 42
1.0
 92
       12
 66
     7
 43
1.0
 76
     1
 77
     6
 78
     2
 67
     7
 79
     5
170
     0
171
     0
290
     0
174
     0
 93
        1
 44
0.0
173
     0
291
     1
 45
0.0
  0
VISUALSTYLE
  5
30
102
{ACAD_REACTORS
330
2A
102
}
330
2A
100
AcDbVisualStyle
  2
Wireframe
 70
     5
 71
     0
 72
     2
 73
     0
 90
        0
 40
0.6
 41
30.0
 62
     5
 63
     7
421
 16777215
 74
     1
 91
        4
 64
     7
 65
   257
 75
     1
175
     1
 42
1.0
 92
        0
 66
   257
 43
1.0
 76
     1
 77
     6
 78
     2
 67
     7
 79
     3
170
     0
171
     0
290
     0
174
     0
 93
        1
 44
0.0
173
     0
291
     0
 45
0.0
  0
VISUALSTYLE
  5
40
102
{ACAD_REACTORS
330
2A
102
}
330
2A
100
AcDbVisualStyle
  2
X-Ray
 70
    25
 71
     2
 72
     2
 73
     1
 90
        1
 40
0.5
 41
30.0
 62
     5
 63
     7
421
 16777215
 74
     1
 91
        0
 64
     7
 65
   257
 75
     1
175
     1
 42
1.0
 92
        8
 66
     7
 43
1.0
 76
     1
 77
     6
 78
     2
 67
     7
 79
     3
170
     0
171
     0
290
     0
174
     0
 93
       13
 44
0.0
173
     0
291
     0
 45
0.0
  0
DICTIONARYVAR
  5
149
102
{ACAD_REACTORS
330
148
102
}
330
148
100
DictionaryVariables
280
     0
  1
1:1
  0
ENDSEC
  0
EOF
